Guitaretab - guitar tabs
Song name
# A B C D E F G H I J K L M N O P Q R S T U V W X Y Z

Misc Unsigned Bands - Acting As Ambassadors - What Did I Do Tab tab

Acting As Ambassadors
What did I do


Intro
E|-------------------------|---------------------------|
B|7-7-7-7-7-7-7-7----| 7-7-7-7-7-7-7-7-----------------|   x2
G|7-7-7-7-7-7-7-7----| 8-8-8-8-8-8-8-8-----------------|
D|-------------------------| --------------------------|
A|-------------------------| --------------------------|
E|-------------------------| --------------------------|


E|---------------------------------------------------|
B|7-7-7-7-7-7-7-7----7-7-7-7-7-7-7-7-----------------|
G|7-7-7-7-7-7-7-7----8-8-8-8-8-8-8-8-----------------|  x7
D|0-0-0-0-0-0-0-0----0-0-0-0-0-0-0-0-----------------|
A|---------------------------------------------------|
E|---------------------------------------------------|


Chorus
E|-------------------------|------------------------------------------|
B|-------------------------|------------------------------------------|
G|99-------777---------|----------------------------------------------|
D|99-999-777-777---|10-10-10-111111-131313----------------------------|(this bar x2)
A|77-999-555-777---|10-10-10--111111---131313-------------------------|   x4
E|-----777---------------|-8--8--8------9-9-9--111111-----------------|
these are 11s
these are 13s
these are 11s


Final bar of chorus
E|-------------------------------------|
B|-------------------------------------|
G|13-13-13-11-11-11--10-10-------------|
D|13-13-13-11-11-11--10-10-------------|
A|-------------------------------------|
E|-------------------------------------|

Verse
E|-------------------------|----------------------------|
B|7-7-7-7-7-7-7-7----| 7-7-7-7-7-7-7-7------------------|   x2
G|7-7-7-7-7-7-7-7----| 8-8-8-8-8-8-8-8------------------|
D|-------------------------| ---------------------------|
A|-------------------------| ---------------------------|
E|-------------------------| ---------------------------|

E|-------------------------|---------------------------|
B|7-7-7-7-7-7-7-7----|7-7-7-7-7-7-7-7------------------|
G|7-7-7-7-7-7-7-7----|8-8-8-8-8-8-8-8------------------|  x7
D|0-0-0-0-0-0-0-0----|0-0-0-0-0-0-0-0------------------|
A|-------------------------|---------------------------|
E|-------------------------|---------------------------|


Chorus
E|-------------------------|------------------------------------------|
B|-------------------------|------------------------------------------|
G|99-------777---------|----------------------------------------------|
D|99-999-777-777---|10-10-10-111111-131313----------------------------|(this bar x2)
A|77-999-555-777---|10-10-10--111111---131313-------------------------|   x4
E|-----777---------------|-8--8--8------9-9-9--111111-----------------|
these are 11s
these are 13s
these are 11s

Final bar of chorus
E|-------------------------------------|
B|-------------------------------------|
G|13-13-13-11-11-11--10-10-------------|
D|13-13-13-11-11-11--10-10-------------|
A|-------------------------------------|
E|-------------------------------------|
[ Tab from: http://www.guitaretab.com/m/misc-unsigned-bands/71537.html ]
Verse
E|-------------------------|----------------------------|
B|7-7-7-7-7-7-7-7----| 7-7-7-7-7-7-7-7------------------|   x2
G|7-7-7-7-7-7-7-7----| 8-8-8-8-8-8-8-8------------------|
D|-------------------------| ---------------------------|
A|-------------------------| ---------------------------|
E|-------------------------| ---------------------------|

E|-------------------------|---------------------------|
B|7-7-7-7-7-7-7-7----|7-7-7-7-7-7-7-7------------------|
G|7-7-7-7-7-7-7-7----|8-8-8-8-8-8-8-8------------------|  x7
D|0-0-0-0-0-0-0-0----|0-0-0-0-0-0-0-0------------------|
A|-------------------------|---------------------------|
E|-------------------------|---------------------------|


Chorus
E|-------------------------|------------------------------------------|
B|-------------------------|------------------------------------------|
G|99-------777---------|----------------------------------------------|
D|99-999-777-777---|10-10-10-111111-131313----------------------------|(this bar x2)
A|77-999-555-777---|10-10-10--111111---131313-------------------------|   x4
E|-----777---------------|-8--8--8------9-9-9--111111-----------------|
these are 11s
these are 13s
these are 11s



Final bar of chorus
E|-------------------------------------|
B|-------------------------------------|
G|13-13-13-11-11-11--10-10-------------|
D|13-13-13-11-11-11--10-10-------------|
A|-------------------------------------|
E|-------------------------------------|

Final verse
E|--------------------------|
B|--------------------------|
G|--------------------------|
D|4--4--4--4-3--3--3--3-----|  x9
A|4--4--4--4-3--3--3--3-----|
 E|2--2--2--2-1--1--1--1----|

Chorus
E|-------------------------|------------------------------------------|
B|-------------------------|------------------------------------------|
G|99-------777----------|---------------------------------------------|
D|99-999-777-777-----|10-10-10-111111-131313--------------------------|(this bar x2)
A|77-999-555-777-----|10-10-10--111111---131313-----------------------|   x4
E|-----777---------------|-8--8--8------9-9-9--111111-----------------|
these are 11ís
these are 13ís
these are 11ís

Final bar of chorus
E|-------------------------------------|
B|-------------------------------------|
G|13-13-13-11-11-11--10-10-------------|
D|13-13-13-11-11-11--10-10-------------|
A|-------------------------------------|
E|-------------------------------------|

Chorus
E|-------------------------|------------------------------------------|
B|-------------------------|------------------------------------------|
G|99-------777---------|----------------------------------------------|
D|99-999-777-777---|10-10-10--111111--131313--------------------------|(this bar x2)
A|77-999-555-777---|10-10-10---111111---131313------------------------|   x4
E|-----777---------------|-8--8--8------9-9-9---111111----------------|
these are 11s
these are 13s
these are 11s

Final bar of chorus
E|-------------------------------------|
B|-------------------------------------|
G|13-13-13-11-11-11--10-10-------------|
D|13-13-13-11-11-11--10-10-------------|
A|-------------------------------------|
E|-------------------------------------|
Mute instantly for sudden end
Related for Acting As Ambassadors - What Did I Do Tab tab