Song name
# A B C D E F G H I J K L M N O P Q R S T U V W X Y Z

Misc Unsigned Bands - Sons Of Guns - Paginnis 5th Caprice tab

This Is My Bands Version Of PAGINNIS 5TH CAPRICE, WE DO IT TUNED DOWN TO D,  GUITAR TWO
PLAYS NEAR THE END OF THE SONG, DONT WORRY ABOUT SECTIONS AND STUFF UNLESS IT SAYS
(NUNBER) TIMES''!!!! ENJOY
Tuning - D (DGCFAD)
Tempo - 200
All Alternate Picking (Unless Marked Otherwise)

 Guitar 1
D-----------------------------------|
A-----------------------------------|
F-----------------------------------|
C-------------------7-5-3-----------| PLAY TWO TIMES
G---3-7-3---5-7-5-3-------7-5-3-----|
D-3-------7---------------------7-5-|

D---------------------------------------------------------7-10-12-|
A-------------------------------------------------------9---------|
F-----------------------------------------------------9-----------|
C-------------------3---------------3-------7-----6-9-------------|
G-4-7-4---5-8-5-----------3-7-3-------5-3-----6-7-----------------|
D-------5-------3-7---7-3-------4-7-------5-----------------------|

D--------------------------------------------------------7-------------|
A-------------------10-8-6-----------------10-8------------10-8--------|
F---5-9-5---7-9-7-5--------9-7-5-----6-9-6------10-9-6-7--------10-9-7-|
C-7-------9----------------------9-7-----------------------------------|
G----------------------------------------------------------------------|
D----------------------------------------------------------------------|

D----------------------------------------------------------------------|
A----------------------------------------------------------------------|
F----------------------------------------------------------------------|
C-10-9-7---------7--------10-------9-------7-------5---------------3---|
G--------10-9-10---8-7-10----7-5-8---5-3-7---3-2-5---2-----8-----------|
D------------------------------------------------------5-8---4-3-7---7-|

  |-----SWEEP-PICKING---------------------------------------------|
D-----------------------------------------------------------------|
A---------------3-------5----------------------8-5------6---------|
F-------5-----4-------5----------10---8------------5------7-4-5---|
C-----5-----3-------5-------7-10--------10-7-5-------5------------|
G-3h7-----5-------7-------8---------9-----------------------------|
D-----------------------------------------------------------------|

Guitar Two Kicks In Harmonizing In 2nd's
Tempo - 220

 Guitar 1
D-8--7-5------------7-5--------------5-------------------------------------|
A--------8--6-5---6-----8--7-5-4---5---8--6-5--------8--6-5----------------|
F---------------5----------------4------------7-6---7--------7-5-4---------|
C-------------------------------------------------7----------------7-5-4-7-|
G--------------------------------------------------------------------------|
D--------------------------------------------------------------------------|

 Guitar 2
D-10-9-7------------9-7--------------7-------------------------------------|
A--------10-8-7---8-----10-9-7-6---7---10-8-7---------10-8-7---------------|
F---------------7----------------6------------9-8---9--------9-7-6---------|
C-------------------------------------------------9----------------9-7-6-9-|
G--------------------------------------------------------------------------|
D--------------------------------------------------------------------------|

 Guitar 1
 |-----------------SWEEP-PICKING------------------------------------------|
D-------5h8----8-p3-------------7p3---------------8--7-6-5-4--------------|
A---4h7------7------5---------------3------------------------8--7-6-5-4---|
F-5-------------------5---------------4-----------------------------------|
C-----------------------5---------------5---------------------------------|
G-------------------------7p3-------------5p2---3-------------------------|
D-----------------------------3---------------3---------------------------|

 Guitar 2
 |-----------------SWEEP-PICKING------------------------------------------|
D-------7h10---10p7-------------9p5---------------10-9-8-7-6--------------|
A---6h8------9------7---------------5------------------------10-9-8-7-6---|
F-7-------------------7---------------6-----------------------------------|
C-----------------------7---------------7---------------------------------|
G-------------------------9p5-------------7p4---5-------------------------|
D-----------------------------4---------------5---------------------------|

 Guitar 1
D-------------------------------------------------------------------|
A-------------------------------------------------------------------|
F-7-6-5-4-3---------------------------------------------------------|
C-----------7-6-5-4-3-------------7-5---5-3-------------------------|
G---------------------7-6-5-4-3-7-----2-----[5]~~~~~~~~~~~~~~~~~~~~-|
D-------------------------------------------------------------------|

 Guitar 2
D-------------------------------------------------------------------|
A-------------------------------------------------------------------|
F-9-8-7-6-5---------------------------------------------------------|
C-----------9-8-7-6-5-------------9-7---7-5-------------------------|
G---------------------9-8-7-6-5-9-----4-----[7]~~~~~~~~~~~~~~~~~~~~-|
D-------------------------------------------------------------------|

Articulation
h   - hammer on
p   - pull off
/   - slide to
~   - vibrato (more '~'s more vibrato)
[x] - the 'x' note is a pinch harmonic
Tap to rate this tab
# A B C D E F G H I J K L M N O P Q R S T U V W X Y Z