Song name
# A B C D E F G H I J K L M N O P Q R S T U V W X Y Z

Misc Unsigned Bands - Betray The Living - Sounding The Seventh Trumpet tab

tabbed by:immorta51654
immorta@optonline.net

h=hammer on
p=pull off
b^=bend string up
b=bend string down
h*=harmonic
t=fingertapping
~=vibrato

 intro
1------13-15----------|
2-----16---12---------|
3----10-----17--------|
4---15-------16-------|
5--12---------14------|
6-13------------16-16-|

1------13-15----------|
2-----17---19---------|
3----11-----20--------|
4---15-------17-------|
5--12---------18------|
6-14-----------12-14--|

1---------|
2---------|
3---------|
4--5-4-1--|
5---------|
6-0-------|

1-----------------|
2-----------------|
3-----------------|
4-3-3-3-3-3-3-3-3-|
5-3-3-3-3-3-3-3-3-|
6-3-3-3-3-3-3-3-3-|

1-----------------|
2-----------------|
3-----------------|
4-5-5-5-5-5-5-5-5-|
5-5-5-5-5-5-5-5-5-|
6-5-5-5-5-5-5-5-5-|

1-----------------|
2-----------------|
3-----------------|
4-3-3-3-3-3-3-3-3-|
5-3-3-3-3-3-3-3-3-|
6-3-3-3-3-3-3-3-3-|

1-----------------|
2-----------------|
3-----------------|
4-7-7-7-7-7-7-7-7-|
5-7-7-7-7-7-7-7-7-|
6-7-7-7-7-7-7-7-7-|

1--------------|
2--------------|
3--------------|
4--------20h*--|
5-17h13p-------|
6--------------|

1--13------16---|
2-12-14h10p--18-|
3-----------17--|
4---------------|
5---------------|
6---------------|

100000000000000000000
200000000000000000000
300000000000000000000
400000000000000000000
500000000000000000000
600000000000000000000

100000000000000000000
200000000000000000000
300000000000000000000
400000000000000000000
500000000000000000000
600000000000000000000

1000000000000000000000
2000000000000000000000
3000000000000000000000
4000000000000000000000
5000000000000000000000
6000000000000000000000

the ending solo i can't figure out
Tap to rate this tab
 
# A B C D E F G H I J K L M N O P Q R S T U V W X Y Z