Song name
# A B C D E F G H I J K L M N O P Q R S T U V W X Y Z

Misc Unsigned Bands - Bleeding Angels Cry - Giving Up tab

Guitar 1 -Joe-Intro
e|--12--14--13--14--12/5--4--6--5--6--4\8--8--10--9--10--8------------|
B|----------------------------------------------------------10--8/1---|
G|--------------------------------------------------------------------|
D|--------------------------------------------------------------------|
A|--------------------------------------------------------------------|
E|--------------------------------------------------------------------|

Guitar 2-Danny-Intro
e|--------------------------------------------------------------------|
B|--------------------------------------------------------------------|
G|--------------------------------------------------------------------|
D|----0--7--7-----2--2-----------0--7--7-------0--7--7------2--2------|
A|--8--------5--3------4--5--0-----------3--8---------5--3------------|
E|--------------------------------------------------------------------|

Guitar-1-Verse
e|--------------------------------------------------------------------|
B|--------------------------------------------------------------------|
G|-------------4--4--3--2-------------1--2--3--2----------------------|
D|--0--5--0--5------------0--5--0--5-------------0--5--0--5-----------|
A|--------------------------------------------------------------------|
E|--------------------------------------------------------------------|

Guitar-2-Verse
e|----------------------------------------------------------------------|
B|----------0----------------1-------------0----------------1-----------|
G|------------4------------2---------4--2-------------2--2--------------|
D|-------3----------5--5----------3----------------5--------------------|
A|--1--3---------3--------------3---------------3-----------------------|
E|----------------------------------------------------------------------|

Guitar-1-Chorus
e|--------------------------------------------------------|
B|--------------------------------------------------------|
G|-------7--9----7-----------------------------8----------|
D|-------6-----8-----------------6-------7---0---0--------|
A|----2------------2--2--4--4------5---2-----------3------|
E|--0-------0------------------0---------------------4--0-|

Guitar-2-Chorus
e|--------------------------------------------------------------------|
B|--------------------------------------------------------------------|
G|----7---7--5---5--0----------------7---7---5--5---------------------|
D|--5---5---3---3-------------------5---5---3--3----------------------|
A|--------------------2--3--2--3--0----------------2--3--2--3--0------|
E|--------------------------------------------------------------------|

Guitar-1-Verse 2
e|--------------------------------------------------------------------|
B|--------------------------------------------------------------------|
G|-------------4--4--3--2-------------1--2--3--2----------------------|
D|--0--5--0--5------------0--5--0--5-------------0--5--0--5-----------|
A|--------------------------------------------------------------------|
E|--------------------------------------------------------------------|

Guitar-2-Verse 2
e|----------------------------------------------------------------------|
B|----------0----------------1-------------0----------------1-----------|
G|------------4------------2---------4--2-------------2--2--------------|
D|-------3----------5--5----------3----------------5--------------------|
A|--1--3---------3--------------3---------------3-----------------------|
E|----------------------------------------------------------------------|

Guitar-1-Chorus
e|--------------------------------------------------------|
B|--------------------------------------------------------|
G|-------7--9----7-----------------------------8----------|
D|-------6-----8-----------------6-------7---0---0--------|
A|----2------------2--2--4--4------5---2-----------3------|
E|--0-------0------------------0---------------------4--0-|

Guitar-2-Chorus
e|--------------------------------------------------------------------|
B|--------------------------------------------------------------------|
G|----7---7--5---5--0----------------7---7---5--5---------------------|
D|--5---5---3---3-------------------5---5---3--3----------------------|
A|--------------------2--3--2--3--0----------------2--3--2--3--0------|
E|--------------------------------------------------------------------|

Guitar-1-Bridge
e|--1h2--2--1--2--1----------------------------------1--2--2--1----|
B|-----0---------0--0---------------------------0--0---------3---0-|
G|--------------------6--7---8----11---------8------------2--------|
D|-------------------------3---3-----5---7-------------------------|
A|-0-----------------------------0------0--0-----------------------|
E|-----------------------------------------------------------------|

Guitar-2-Bridge
e|---0-----0-----0------0----------0-------------0----0------------|
B|--3--3--5--7--8--7---5--6--0---2---3--8--6---5----2---4--0--2--3-|
G|--1----------1-------------------1---------1----1----------------|
D|-----------------------------------------------------------------|
A|-----------------------------------------------------------------|
E|-----------------------------------------------------------------|

Guitar-1-Chorus
e|---------8--------------------12---------------------0--|
B|-----------5---------------11-----4---------------------|
G|-------------6-----------5----------4--------------7----|
D|---0-----------7-------0---------------0----------------|
A|-9---------------9---6--------------------4----3--------|
E|-----8-------------8-------------------------9---7------|

Guitar-2-Chorus
e|-0-------------------------------0------0---------------|
B|--------------------4-----------4-------------4---------|
G|---------0-------------4--------------------------------|
D|-------4---4---------------4---------4------------------|
A|---8---------8--0------------------7---8----------------|
E|-----9-------------7--0--7----0-------------0-----------|

Guitar-1-Outro
e|----------------------0----0---0-----------|
B|----------------1-------1----6-------------|
G|-4---------4------2-------8----------------|
D|-------8------7-----9------------4---------|
A|----------------------6------6------6------|
E|--7--7----------7------------------------7-|

e|--2----5---7---4---2---7----0--------------|
B|-----0---0-------0---0---0----0------0-----|
G|----3--------3-------------3-----3------2--|
D|---------------7-------6-----------7-------|
A|-------------------------------------------|
E|-------------------------------------------|
Tap to rate this tab
 
# A B C D E F G H I J K L M N O P Q R S T U V W X Y Z