Song name
# A B C D E F G H I J K L M N O P Q R S T U V W X Y Z

Misc Unsigned Bands - Far From Perfect - Grave Picker tab

not much...new band on the rise FAR FROM PERFECT we'll drop some more of our tabs on
soon, till than, enjoy

Tabbed by:
Email:

Tuning:

e|-----------------------------------------------------------------------------------------------|
B|-----------------------------------------------------------------------------------------------|
G|-----------------------------------------------------------------------------------------------|
D|-12----4-----5----7----------------------------------------------------------------------------|
A|-12----4-----5----7---------------------------------------------------------|   x5   x5   x5--|   x5
E|-10----2-----3----5----------------------------------------------------------------------------|
              play that through 2 times
e|----------------------------------------------------------------------------------|
B|----------------------------------------------------------------------------------|
G|----------------------------------------------------------------------------------|
D|----------------------------------------------------------------------------------|
A|----------------------------------------------------------------------------------|
E|-12-12-12-12-12---4-4-4-4-4---5-5-5-5-5---7-7-7-7-7-------------------------------|
play through 2 times
e|------------------------------------------------------------------------------|
B|------------------------------------------------------------------------------|
G|------------------------------------------------------------------------------|
D|---12-----4------5-------7----------------------------------------------------|
A|--12-----4------5-------7-----------------------------------------------------|
E|-10-----2------3-------5------------------------------------------------------|
  play through FIVE times


um the BEGINNING is played in the rhythem like the anthem by BLINK 182 and the end is
like FIRST DAY OF THE REST OF OUR LIVES by MXPX ok? now once you've gone through it once
over and go 3 MORE TIMES add the end part after you've gone through TWO times 
directions good song enjoy

SAWYER-LEAD GUITAR, LEAD VOCALS
$TU-GUITAR, VOCALS
MATT RANTA-DRUMMER

FaR fRoM pErFeCt

| /  slide up
|   slide down
| h  hammer-on
| p  pull-off
| ~  vibrato
| +  harmonic
| x  Mute note
===============================================================================
Tap to rate this tab
 
# A B C D E F G H I J K L M N O P Q R S T U V W X Y Z