Song name
# A B C D E F G H I J K L M N O P Q R S T U V W X Y Z

Misc Unsigned Bands - The Quality Meats - Nightgull tab

NIGHTGULL - THE QUALITY MEATS

Lead Guitar


Standard Tuning








INTRO --





|-1-1-1---xxxxxx--------------------------------------------|
|-1-1-1---xxxxxx--------------------------------------------|
|-2-2-2---xxxxxx--------------------------------------------|
|-3-3-3---xxxxxx--------------------------------------------|
|-3-3-3---xxxxxx-----0-0-0-3-3-0-0-3-3-0-0-0-2-2-1-1--------|
|-1-1-1---xxxxxx-------------------------------------1-1----|

   X8                             X4

|-----------------------------------------------------------|
|-----------------------------------------------------------|
|-----------------------------------------------------------|
|-------------------------------------------------5---4-----|
|-3-3-3-3-3-3-3-3-4-4-4-4-4-4-4-4-5-5-5-5-5-5-5-5-----------|
|-----------------------------------------------------------|

                        X1

|-----------------------------------------|
|-----------------------------------------|
|-----------------------------------------|
|-----------------------------------------|
|--0-0-0-3-3-0-0-3-3-0-0-0-2-2-1-1--------|
|-----------------------------------1-1---|

                X4



|-----------------------------------------------------------|
|-----------------------------------------------------------|
|-----------------------------------------------------------|
|-------------------------------------------------5---4-----|
|-3-3-3-3-3-3-3-3-4-4-4-4-4-4-4-4-5-5-5-5-5-5-5-5-----------|
|-----------------------------------------------------------|

                        X1


VERSE --

|----------------------------------------------------------------------------------------|
|----------------------------------------------------------------------------------------|
|----------------------------------------------------------------------------------------|
|---9/11-x-11-x-11-x-11-11---9/11-x-11-x-11-x-10---9/11-x-11-x-11-x-11----10--10--10--10-|
|---9/11-x-11-x-11-x-11-11---9/11-x-11-x-11-x-10---9/11-x-11-x-11-x-11----10--10--10--10-|
|---9/11-x-11-x-11-x-11-11---9/11-x-11-x-11-x-10---9/11-x-11-x-11-x-11----10--10--10--10-|

                     Throughout whole verse


CHORUS -- 


|-----------------------------------------------------------------------------------------|
|-----------------------------------------------------------------------------------------|
|-----------------------------------------------------------------------------------------|
|----9---9---9----------------------------------------------------------------------------|
|----9---9---9----------------------------------------------------------------------------|
|----7---7---7----------------------------------------------------------------------------|


Play along to rythym, thats the chord...



K, I'm pretty sure thats it...the first tab ive ever written...so its a bit sketchy


Tap to rate this tab
# A B C D E F G H I J K L M N O P Q R S T U V W X Y Z