Song name
# A B C D E F G H I J K L M N O P Q R S T U V W X Y Z

Misc Unsigned Bands - P-101 - Pr0-view tab

Help us improve GuitareTab! Take a short survey!
This is a sweet song The band and i came up with last week, Pretty easy so you beginers
there should really like it, well email me if you got any questions!
here it is!, Lyrics will be added shortly enjoy!
----------------------------------------------------------------------------


Song title- Pr0-View
Tuneing-Standard E
skill-Intermediate

Pr0-View
              Intro distorted
e-------------------------------------------------|
b-------------------------------------------------|
g-------------------------------------------------| >x3
d-----2-2-2-3-------------------------------------|
a----0-------3-3-3-3-2----------------------------|
E-------------------------------------------------|

e-------------------------------------------------|
b-------------------------------------------------|
g-------------------------------------------------|
d-----2-2-2-3-------------------------------------| >x1
a----0-------3-----2^-----------------------------|
E-------------------------------------------------|

              After Intro Heavy distortion

e-------------------------------------------------|
b-------------------------------------------------|
g-------------------------------------------------| >x3
d-22222222----9999--10101010----55555555-44444444-|
a-00000000----7777--8-8-8-8-----33333333-22222222-|
E-------------------------------------------------|

              Repeat intro un-distorted

e-------------------------------------------------|
b-------------------------------------------------|
g-------------------------------------------------| >x3
d-----2-2-2-3-------------------------------------|
a----0-------3-3-3-3-2----------------------------|
E-------------------------------------------------|

e-------------------------------------------------|
b-------------------------------------------------|
g-------------------------------------------------|
d-----2-2-2-3-------------------------------------| >x1
a----0-------3-----2^-----------------------------|
E-------------------------------------------------|

        End on A power chord undsotorted softly

e-------------------------------------------------|
b-------------------------------------------------|
g----2--------------------------------------------|
d----2--------------------------------------------|
a----0~~~~~~~~------------------------------------|
E-------------------------------------------------|


Well i hope you liked it, im currently looking for band members around Kenton Ohio.. if
are interrested please leave me an email (address above^) we are like a rock/Grudge
so if ur into that and ur pretty good with ur axe.. give me an email and i will get back 
ya.. there is more to come on this song.. it's a work in progress, thanks for your 
later


:.:Ben Laney:.:
Related for P-101 - Pr0-view tab