Song name
# A B C D E F G H I J K L M N O P Q R S T U V W X Y Z

Misc Unsigned Bands - Amitriptyline - Listen To The Silence tab

                           Listen to the Silence                               


                                                                   Amitriptyline
Track 1



                              \3/                                        
     S S S S S S S S S S S S  E   E     S S S S S S S S S S S S S S S S  
E||----------------------------------|----------------------------------|
B||----------------------------------|----------------------------------|
G||----------------------------------|----------------------------------|
D||----------------------------------|--------------------------2-3-2-0-|
A||--------2-L-----3-L-3-2-0-14---L--|--------2-L-----3-L-3-2-0---------|
E||--0-0-0-----0-0-------------------|--0-0-0-----0-0-------------------|


                           \3/                                        
  S S S S S S S S S S S S  E   E     S S S S S S S S S S S S S S S S  
----------------------------------|----------------------------------|
----------------------------------|----------------------------------|
----------------------------------|----------------------------------|
----------------------------------|--------------------------2-3-2-0-|
--------2-L-----3-L-3-2-0-14---L--|--------2-L-----3-L-3-2-0---------|
--0-0-0-----0-0-------------------|--0-0-0-----0-0-------------------|


    S S S S S S S S S S S S S S S S  4x
|------------------------------------||
|------------------------------------||
|*----------------------------------*||
|*--------------------------2-3-2-0-*||
|---------2-L-----3-L-3-2-0----------||
|---0-0-0-----0-0--------------------||


   PM PM   PM PM PM PM PM   PM   PM PM PM PM PM    
   S  S  S S  S  S  S  S  S S  S S  S  S  S  S     
-------------------------------------------------||
-------------------------------------------------||
*-----------------------------------------------*||
*-----------------------------------------------*||
-------------------------------------------------||
---0--0----0--0--0--0--0----0----0--0--0--0--0---||


   PM PM   PM PM PM PM PM   PM   PM PM PM PM PM    
   S  S  S S  S  S  S  S  S S  S S  S  S  S  S   4x
-------------------------------------------------||
-------------------------------------------------||
*-----------------------------------------------*||
*-----------------------------------------------*||
-------------------------------------------------||
---0--0----0--0--0--0--0----0----0--0--0--0--0---||


   PM PM PM     PM PM PM   PM   PM PM PM PM PM    
   S  S  S  S S S  S  S  S S  S S  S  S  S  S     
------------------------------------------------||
------------------------------------------------||
*----------------------------------------------*||
*----------------------------------------------*||
------------2-L---------------------------------||
---0--0--0------0--0--0----0----0--0--0--0--0---||


  PM PM PM     PM PM     PM   PM PM PM PM PM  
  S  S  S  S S S  S  S S S  S S  S  S  S  S   
---------------------------------------------|
---------------------------------------------|
---------------------------------------------|
---------------------------------------------|
-----------2-L-------3-L---------------------|
--0--0--0------0--0------0----0--0--0--0--0--|


  PM PM PM     PM PM     PM   PM PM PM PM PM  
  S  S  S  S S S  S  S S S  S S  S  S  S  S   
---------------------------------------------|
---------------------------------------------|
---------------------------------------------|
---------------------------------------------|
-----------2-L-------3-L---------------------|
--0--0--0------0--0------0----0--0--0--0--0--|


    S S S S S S S S S S S S S S S S  4x
|------------------------------------||
|------------------------------------||
|*----------------------------------*||
|*--------------------------2-3-2-0-*||
|---------2-L-----3-L-3-2-0----------||
|---0-0-0-----0-0--------------------||


   PM PM   PM PM PM PM PM   PM   PM PM PM PM PM    
   S  S  S S  S  S  S  S  S S  S S  S  S  S  S     
-------------------------------------------------||
-------------------------------------------------||
*-----------------------------------------------*||
*-----------------------------------------------*||
-------------------------------------------------||
---0--0----0--0--0--0--0----0----0--0--0--0--0---||


   PM PM   PM PM PM PM PM   PM   PM PM PM PM PM    
   S  S  S S  S  S  S  S  S S  S S  S  S  S  S   4x
-------------------------------------------------||
-------------------------------------------------||
*-----------------------------------------------*||
*-----------------------------------------------*||
-------------------------------------------------||
---0--0----0--0--0--0--0----0----0--0--0--0--0---||


   PM PM PM     PM PM PM   PM   PM PM PM PM PM    
   S  S  S  S S S  S  S  S S  S S  S  S  S  S     
------------------------------------------------||
------------------------------------------------||
*----------------------------------------------*||
*----------------------------------------------*||
------------2-L---------------------------------||
---0--0--0------0--0--0----0----0--0--0--0--0---||


  PM PM PM     PM PM     PM   PM PM PM PM PM  
  S  S  S  S S S  S  S S S  S S  S  S  S  S   
---------------------------------------------|
---------------------------------------------|
---------------------------------------------|
---------------------------------------------|
-----------2-L-------3-L---------------------|
--0--0--0------0--0------0----0--0--0--0--0--|


  PM PM PM     PM PM     PM   PM PM PM PM PM  
  S  S  S  S S S  S  S S S  S S  S  S  S  S   
---------------------------------------------|
---------------------------------------------|
---------------------------------------------|
---------------------------------------------|
-----------2-L-------3-L---------------------|
--0--0--0------0--0------0----0--0--0--0--0--|


    S S S S S S S S S S S S S S S S  4x  S S S S S S S S S S S S  S  S  S  S  
|------------------------------------||--0-0-0-7-L-0-0-8-L-8-7-5-14-15-14-12-|
|------------------------------------||--------------------------------------|
|*----------------------------------*||--------------------------------------|
|*--------------------------2-3-2-0-*||--------------------------------------|
|---------2-L-----3-L-3-2-0----------||--------------------------------------|
|---0-0-0-----0-0--------------------||--------------------------------------|


  S S S S S S S S S S S S  S  S  S  S  
--0-0-0-7-L-0-0-8-L-8-7-5-14-15-17-19-|
--------------------------------------|
--------------------------------------|
--------------------------------------|
--------------------------------------|
--------------------------------------|


  T T T T T T T T T T T T T T T T T T          
  |-3-| |-3-| |-3-| |-3-| |-3-| |-3-|          
  S S S S S S S S S S S S S S S S S S S S S S  
----------------------------------------------|
----------------------------------------------|
--------------------7-3-0---------------------|
--7-3-0-7-3-0-7-3-0---------------------------|
--------------------------7-3-0---------------|
--------------------------------7-3-0-0-2-3-2-|


   S  S  S  S  S  S  S  S  S  S  S  S  S  S  E    
--------------------------------------------22b--|
--19-17-------------------------------17-19------|
--------19-17------------------------------------|
--------------19-17------------------------------|
--------------------19-17------------------------|
--------------------------19-17-15-14------------|


  S S S S S S S S S S S S S S S S    S S S S S S S S S S S S S S S S  
----------------------------------|----------------------------------|
----------------------------------|----------------------------------|
----------------------------------|----------------------------------|
--------------------------2-3-2-0-|--------------------------2-3-5-7-|
--------2-L-----3-L-3-2-0---------|--------2-L-----3-L-3-2-0---------|
----0-0-----0-0-------------------|----0-0-----0-0-------------------|


  T T T T T T T T T T T T T T T T T T         
  |-3-| |-3-| |-3-| |-3-| |-3-| |-3-|         
  S S S S S S S S S S S S S S S S S S  Q      
--------------------------5-7-0-7-9-0-22b----|
---------------------------------------------|
---------------------------------------------|
--7-3-0-7-3-0-7-3-0-2-3-7--------------------|
---------------------------------------------|
---------------------------------------------|


   Q     S  S  S  S  S  S  S  S S S S S      S S S S S S S S S S S S S S S S  4x
---L----20-19-17-15-17-19-20-22---------||------------------------------------||
----------------------------------------||------------------------------------||
----------------------------------------||*----------------------------------*||
----------------------------------------||*--------------------------2-3-2-0-*||
----------------------------------------||---------2-L-----3-L-3-2-0----------||
--------------------------------7-5-3-2-||---0-0-0-----0-0--------------------||


  E  E  Q    Q    Q      
--0--------------------||
--0--------------------||
--1--------------------||
--2--------------------||
--2--------------------||
--0--------------------||




Duration Legend
---------------
W - whole
H - half
Q - quarter
E - 8th
S - 16th
T - 32nd
X - 64th
. - note dotted
|-n-|  - n-tuplets


Tablature Legend
----------------
L - tied note
x - dead note
g - grace note
(n) - ghost note
> - accentuded note
NH - natural harmonic
AH - artificial harmonic
TH - tapped harmonic
SH - semi harmonic
PH - pitch harmonic
h - hammer on
p - pull off
b - bend
br - bendRelease
pb - preBend
pbr - preBendRelease
brb - bendReleaseBend
\n/ - tremolo bar dip
\n - tremolo bar dive
-/n - tremolo bar Release up
/n\ - tremolo bar inverted dip
/n - tremolo bar return
-\n - tremolo bar Release down
S - shift slide
s - legato slide
/ -  slide into from below or out of upwards
\ -  slide into from above or out of downwards
~ - vibrato
W - wide vibrato
tr - trill
TP - tremolo picking
T - tapping
S - slap
P - pop
< - fade in
^ - brush up
v - brush down
Tap to rate this tab
# A B C D E F G H I J K L M N O P Q R S T U V W X Y Z