Song name
# A B C D E F G H I J K L M N O P Q R S T U V W X Y Z

Misc Unsigned Bands - Nameless Heroes - Mistaken Love Song tab

song:mistaken love song
by:nameless heroes
by:me

Order
intro1
intro2
verse1
intro1(but with guitar 1)
verse2
intro1
intro2
chorus
adlib
chorus
outro

intro 1(guitar 2 and bass)
gtr.2
|------------------------------------------------------------|
|------------------------------------------------------------|
|--------7----7-7------7----7-7-------7----7-7-------7----7-7|x2
|------------------5-5----5----------------------------------|
|---5-5----5-------------------------------------------------|
|--------------------------------7-7----7-------5-5----5-----|

intro 2 (guitar 1 and 2)
gtr.1
|-----------------------|
|-----------------------|
|---777-------444-------|
|---777--555--444--777--|
|---555--555--222--777--|
|--------333-------555--|

gtr.2

|------------------------------------------------------------|
|------------------------------------------------------------|
|--------7----7-7------7----7-7-------7----7-7-------7----7-7|
|------------------5-5----5----------------------------------|
|---5-5----5-------------------------------------------------|
|--------------------------------7-7----7-------5-5----5-----|

|---------------------------------------|
|------7----55----7-5-------7---55------|
|----7---7-----7------7---7---7----77---|
|---------------------------------------|x2
|---------------------------------------|
|---------------------------------------|

verse
|---------------------------------------|
|---------------------------------------|
|---7777777-----------4444444-----------| x2
|---7777777--5555555--4444444--7777777--|
|---5555555--5555555--2222222--7777777--|
|------------3333333-----------5555555--|

chorus
|-------------------------------|
|-------------------------------|
|----------44444---------77777--|
|---55555--22222--77777--77777--|
|---55555--22222--77777--55555--|
|---33333---------55555---------|

|----------------------------------|
|----------------------------------|
|----------44444---------77777-----|
|---55555--22222--77777--77777--5--|
|---55555--22222--77777--55555--5--|
|---33333---------55555---------3--|

adlib/outro
D-A-B-A-G-A x4
|-----------------------|
|-----------------------|
|--777------------------|
|--777--7-9-7-555--77777|x4
|--555--7-9-7-555--55555|
|-------5-7-5-333--55555|

thanks...
add us up on friendster
nameless_heroes@yahoo.com
Tap to rate this tab
# A B C D E F G H I J K L M N O P Q R S T U V W X Y Z