Guitaretab - guitar tabs
Song name
# A B C D E F G H I J K L M N O P Q R S T U V W X Y Z

Misc Unsigned Bands - 8kount - Fall In Line tab

Song: Fall In Line
Artist: 8Kount
Album: Cornered
Tuning: C# (C#,G#,C#,F#,A#,D#)

Notes: I know the lead guitarist, Chris Suttle, so this is pretty much the tab he sent 
Therefore this is correct.

Key: ~ = hold out.
     h = hammer on


Intro: (Ok, believe it or not, Chris told me that for the
effect used here, he put a paper towel roll over the mic)
|-------------------------------------------------|
|-------------------------------------------------|
|-------------------------------------------------|
|-------------------------------------------------|
|-------------------------------------------------|
|--2-0-2-0-2-0h2-0h2-2-0--2-0-2-0-2-0h2-0h2-2-0---|


Heavy Beginning: Distortion (2X)
|-------------------------------------------------|
|-------------------------------------------------|
|-------------------------------------------------|
|-------------------------------------------------|
|--------------------3--------------------3~------|
|--2-0-2-0-2-0h2-0h2--0--2-0-2-0-2-0h2-0h2--------|

|-------------------------------------------------|
|-------------------------------------------------|
|-----------------------77777777-5555-4444--------|
|-----------------------77777777-5555-4444--------|
|-------------------3---55555555-3333-2222--------|
|-2-0-2-0-2-0h2-0h2--0----------------------------|


Verse: 2X
|------0--0---------------------------------------|
|--------0--0~------------------------------------|
|---------------------0---------0-----------------|
|-------------------5---------7-------------------|
|-----------------3---------5---------------------|
|-2~------------2---------0-----------------------|
[ Tab from: http://www.guitaretab.com/m/misc-unsigned-bands/71966.html ]
Chorus Guitar 1: (if u want u can play this part on just the low string(like the intro), 
it sounds way better with the chords.)
(2X)
|-------------------------------------------------|
|-------------------------------------------------|
|-------------------5----------------------5~-----|
|-2-0-2-0-2-0h2-0h2-5-0--2-0-2-0-2-0h2-0h2-5~-----|
|-2-0-2-0-2-0h2-0h2-3-0--2-0-2-0-2-0h2-0h2-3~-----|
|-2-0-2-0-2-0h2-0h2---0--2-0-2-0-2-0h2-0h2--------|

|-------------------------------------------------|
|-------------------------------------------------|
|-------------------5---77777777-5555-4444--------|
|-2-0-2-0-2-0h2-0h2-5-0-77777777-5555-4444--------|
|-2-0-2-0-2-0h2-0h2-3-0-55555555-3333-2222--------|
|-2-0-2-0-2-0h2-0h2---0---------------------------|

Chorus Guitar 2: Play in quarter notes.(this part is barely there, but it is there. Just 
for it)
(2X)
|---------0-0-0-0-0-0-0-0-0--0--0--0--0--0--0--0--|
|-5-5-5-5-7-7-7-7-8-8-8-8-10-10-10-10-12-12-12-12-|
|-------------------------------------------------|
|-------------------------------------------------|
|-------------------------------------------------|
|-------------------------------------------------|

VERSE: 2X

CHORUS(Both Guitars):2X

Bridge: This part is complicated. Just work on it and you
will get it. (2X)
|-----------------------------------------------------|
|-----------------------------------------------------|
|-----------------------------------------------------|
|0-2222-0-2222-3-0-2222-0-22222-5-0-2222-0-2222-3-00-|
|-----------------------------------------------------|
|-----------------------------------------------------|

Bridge Continued:
|----------------------------|
|----------------------------|
|----------------------------|
|-5-0-7-0-5-0-3-0-5-0-3-0----|
|----------------------------|
|----------------------------|

CHORUS(Both Guitars):2X

On the final time the chorus is played, this little chord
is played over and over again(almost sounds like a solo in the background)very stacato
|----12----|
|----15----|
|----14----|
|---------|
|----------|
|----------|

Outro:
|-----------------------------------|
|-----------------------------------|
|-----------------------------------|
|--2-2-2-2---2-2-2-2---5-----2-----|
|---2-2-2-2---2-2-2-2---3--0--2-----|
|---2-2-2-2---22-2-2------0--2-----|

Thanks and enjoy. I hope this tab made sense to everyone. Leave comments and rate please.
Related for 8kount - Fall In Line tab