Song name
# A B C D E F G H I J K L M N O P Q R S T U V W X Y Z

Misc Unsigned Bands - Undercurrent - Look To Better Mondays tab

I'm pretty certain this is right, listen to the song and have a play!
(This version is in D, on the record, Ant plays it in F with a Capo on the 3rd fret, and
play it live in G with a capo on the 5th! Just shove a capo wherever you want and shift
tab accordingly)

Intro
Bridge
Verse 1
Bridge
Verse 2
Middle 8
Solo
(Bass plays the root notes of the chords for a couple of bars before the next verse)
Verse 3
Bridge

Finish on:

E|-0-12(har)-12(har)-12(har)-----|
B|-0---12(har)-12(har)-12(har)---|
G|-0-----12(har)-12(har)---------|
D|-0-----------------------------|
A|-------------------------------|
E|-------------------------------|

Intro:

E|-2--2--2-2-3/5-3-2-3--2-0--|
B|-3--3--3-3-0-0-0-0-0--0-0--|
G|-2--2--2-2-0-0-0-0-0--0-0--| (Wait for the bass to come in chugging on E)
D|-0--0--0-0-0-0-0-0-0--0-x--|
A|-0--0--0-0-x-x-x-x-x--x-x--|
E|-x--x--x-x-x-x-x-x-x--x-x--|

Bridge:

E|-2--2--2-2-3/5-3-2-3--2-0--0--0--0-0-2/5-3-2-3--2-0--|
B|-3--3--3-3-0-0-0-0-0--0-0--2--2--2-2-0-0-0-0-0--0-0--|
G|-2--2--2-2-0-0-0-0-0--0-0--2--2--2-2-0-0-0-0-0--0-0--| (x2)
D|-0--0--0-0-0-0-0-0-0--0-x--2--2--2-2-0-0-0-0-0--0-x--|
A|-0--0--0-0-----------------0--0--0-0-----------------|
E|-----------------------------------------------------|

Verse:
  P/M
E|-----------------------------------------7-7-7-7-7--------3-3-3-3-3-|
B|-----------------------------------------7-7-7-7-7--------3-3-3-3-3-|
G|-7-7-7-7-7-7-7-7-------------------------7-7-7-7-7--------4-4-4-4-4-|
D|-7-7-7-7-7-7-7-7--7-7-7-7-7-7-7-7--9-9-9-9-9-9-9-9--5-5-5-5-5-5-5-5-|
A|-5-5-5-5-5-5-5-5--7-7-7-7-7-7-7-7--9-9-9-9-9-9-9-9--5-5-5-5-5-5-5-5-|
E|------------------5-5-5-5-5-5-5-5--7-7-7-7-7-7-7-7--3-3-3-3-3-3-3-3-|

Middle 8:

E|-5--5-x-3--3-3-3--7--7-x-5--5-5-5-|
B|-x--x-x-3--3-3-3--7--7-x-5--5-5-5-|
G|-7--7-x-4--4-4-4--7--7-x-6--6-6-6-| (x3 then stay on the A chord
D|-7--7-x-5--5-5-5--9--9-x-7--7-7-7-|  to build up to the solo. Play
A|-5--5-x-5--5-5-5--9--9-x-7--7-7-7-|  this sequence 8 times behind the
E|--------3--3-3-3--7--7-x-5--5-5-5-|  solo then end on a ringing A)

Solo:

E|-----------------------------------------------------------------|
B|-----------------------------------------------------------------|
G|------------------------------12-11-9-12-11-9-12-11-9-12-9-12b14-|
D|-------------------9-11-12-11------------------------------------|
A|--------9-10-9--12-----------------------------------------------|
E|-10--12----------------------------------------------------------|

E|-------10-14p10-10-12p10-10-14p10-10-12p10-10-12p10-12p10--------|
B|-10-12-----------------------------------------------------------|
G|-----------------------------------------------------------------|
D|-----------------------------------------------------------------|
A|-----------------------------------------------------------------|
E|-----------------------------------------------------------------|

E|-14p10-10-12p10-10-14p10-10-12p10-10-12p10-12p10-|
B|-------------------------------------------------|
G|-------------------------------------------------| (x2)
D|-------------------------------------------------|
A|-------------------------------------------------|
E|-------------------------------------------------|

E|-15p10-15p10-14p10-14p10-12p10-12p10-14p10-14p10-|
B|-------------------------------------------------|
G|-------------------------------------------------|
D|-------------------------------------------------|
A|-------------------------------------------------|
E|-------------------------------------------------|

E|-14p10-10-12p10-10-14p10-10-12p10-10-12p10-12p10-|
B|-------------------------------------------------|
G|-------------------------------------------------| (x2)
D|-------------------------------------------------|
A|-------------------------------------------------|
E|-------------------------------------------------|

E|-/17-15-17-/19-17-15-17---19-19-19----|
B|--------------------------------------|
G|--------------------------------------|
D|--------------------------------------|
A|--------------------------------------|
E|--------------------------------------|

www.undercurrent.2ya.com
Tap to rate this tab
# A B C D E F G H I J K L M N O P Q R S T U V W X Y Z