Song name
# A B C D E F G H I J K L M N O P Q R S T U V W X Y Z

Misc Unsigned Bands - Deadkidsongs - The Sobering Reality Of Trench Warfare tab

----------------------------------------------------------------------------
           The Sobering Reality Of Trench Warfare - deadkidsongs
----------------------------------------------------------------------------
Tabbed by: Peter himself (especially for dave)
Email: deadkidsongs_doliver@hotmail.com

Tuning:Drop D (DADGBe)

| b  bend (note in brackets is note bent up to)
| /  slide up
| \  slide down
| h  hammer-on
| p  pull-off
| ~  vibrato
| +  harmonic
| x  Mute note

Intro

e|---------------------------------|
B|-----6---5------6---5-------6----|
G|-----7---7------7---7-------7----|
D|-0-0--------0-0--------0-0-------|
A|---------------------------------|
D|---------------------------------|
   x x        x x        x x        

e|---------------------------------|---------------------------------|
B|-----6---5------6---5-------6----|-----6---5------6---5-------6----|
G|-----7---7------7---7-------7----|-----7---7------7---7-------7----|
D|-0-0--------0-0--------0-0-------|---------------------------------|
A|---------------------------------|-4-4--------4-4--------4-4-------|
D|---------------------------------|---------------------------------|
   x x        x x        x x         x x        x x        x x        

e|---------------------------------|
B|-----6---5------6---5-------6----|
G|-----7---7------7---7-------7----|
D|-0-0--------0-0--------0-0-------|
A|---------------------------------|
D|---------------------------------|
   x x        x x        x x                                          


e|-------------------------------------------------|
B|-------------------------------------------------|
G|-7--7--7--7--7--7--7--7--10-10-10-10-10-10-10-10-|
D|-5--5--5--5--5--5--5--5--8--8--8--8--8--8--8--8--|
A|-5--5--5--5--5--5--5--5--8--8--8--8--8--8--8--8--|
D|-5--5--5--5--5--5--5--5--8--8--8--8--8--8--8--8--|


e|---------------------------------|---------------------------------|
B|-----6---5------6---5-------6----|-----6---5------6---5-------6----|
G|-----7---7------7---7-------7----|-----7---7------7---7-------7----|
D|-0-0--------0-0--------0-0-------|---------------------------------|
A|---------------------------------|-4-4--------4-4--------4-4-------|
D|---------------------------------|---------------------------------|
   x x        x x        x x         x x        x x        x x        

e|---------------------------------|
B|-----6---5------6---5-------6----|
G|-----7---7------7---7-------7----|
D|-0-0--------0-0--------0-0-------|
A|---------------------------------|
D|---------------------------------|
   x x        x x        x x                                          


e|-------------------------------------------------|
B|-------------------------------------------------|
G|-7--7--7--7--7--7--7--7--10-10-10-10-10-10-10-10-|
D|-5--5--5--5--5--5--5--5--8--8--8--8--8--8--8--8--|
A|-5--5--5--5--5--5--5--5--8--8--8--8--8--8--8--8--|
D|-5--5--5--5--5--5--5--5--8--8--8--8--8--8--8--8--|


Chorus

e|-------------------------------|-----------------------------------------|
B|-------------------------------|-----------------------------------------|
G|---------2/7--7-7--7h10p7----7-|----------------9h10p9-10b(12)-10p9p0----|
D|-0--0--0------------------10---|-10---10--10-10--------------------------|
A|-0--0--0-----------------------|-10---10--10-10--------------------------|
D|-0--0--0-----------------------|-10---10--10-10--------------------------|


e|-------------------------------|-----------------------------------------|
B|-------------------------------|-----------------------------------------|
G|----------7---7--7--7--7-------|-----------------------------------------|
D|-5--5--5--5---5--5--5--5-------|-7----7---7---7------7-----8-----7-------|
A|-5--5--5--5---5--5--5--5-------|-5----5---5---5---5-----5-----5-----5--8-|
D|-5--5--5--5---5--5--5--5-------|-0----0---0---0--------------------------|
                                                    x     x     x     x

e|-------------------------------|-----------------------------------------|
B|-------------------------------|-----------------------------------------|
G|---------2/7--7-7--7h10p7----7-|-----------------------------------------|
D|-0--0--0------------------10---|-10---10--10-10-----12----14----12----10-|
A|-0--0--0-----------------------|-10---10--10-10--------------------------|
D|-0--0--0-----------------------|-10---10--10-10--10----10----10----10----|
                                                   x     x     x     x     

e|-------------------------------|-----------------------------------------|
B|-------------------------------|-----------------------------------------|
G|----------7---7--7--7--7-------|-----------------------------------------|
D|-5--5--5--5---5--5--5--5-------|-7----7---7---7------7-----8-----7-------|
A|-5--5--5--5---5--5--5--5-------|-5----5---5---5---5-----5-----5-----5--8-|
D|-5--5--5--5---5--5--5--5-------|-0----0---0---0--------------------------|
                                                    x     x     x     x     

Verse

e|-------------------------------|
B|-------------------------------|
G|---------3---3-----------------|
D|-0---0---0---0-(ring out)------|
A|-0---0---1---1-----------------|
D|-0---0-------------------------|
   x   x

ok the next bit is just the chords not the strumming pattern so just make it up!

Guitar 1

e|----------------------------------------|
B|----------------------------------------|
G|-10------9-------7-------7-------12-----|
D|-0-------10------0-------7-------10-----|
A|-8-------7-------5-------5-------10-----|
D|-------------------------0-------10-----|


Guitar 2

e|----------------------------------------|
B|----------------------------------------|
G|-19------17------15------14------12-----|
D|----------------------------------------|
A|-17------15------13------12------10-----|
D|----------------------------------------|

(both guitars)
e|-----------------------------------------|
B|-----------------------------------------|
G|---9h10--9---9h10--9---9h10--9---9h10--9-|
D|-8---------8---------8---------8---------|
A|-8---------8---------8---------8---------|
D|-8---------8---------8---------8---------|


e|---------------------------------|
B|-----6---5------6---5-------6----|
G|-----7---7------7---7-------7----|
D|-0-0--------0-0--------0-0-------|
A|---------------------------------|
D|---------------------------------|
   x x        x x        x x        

e|---------------------------------|---------------------------------|
B|-----6---5------6---5-------6----|-----6---5------6---5-------6----|
G|-----7---7------7---7-------7----|-----7---7------7---7-------7----|
D|-0-0--------0-0--------0-0-------|---------------------------------|
A|---------------------------------|-4-4--------4-4--------4-4-------|
D|---------------------------------|---------------------------------|
   x x        x x        x x         x x        x x        x x        

e|---------------------------------|
B|-----6---5------6---5-------6----|
G|-----7---7------7---7-------7----|
D|-0-0--------0-0--------0-0-------|
A|---------------------------------|
D|---------------------------------|
   x x        x x        x x                                          


e|-------------------------------------------------|
B|-------------------------------------------------|
G|-7--7--7--7--7--7--7--7--10-10-10-10-10-10-10-10-|
D|-5--5--5--5--5--5--5--5--8--8--8--8--8--8--8--8--|
A|-5--5--5--5--5--5--5--5--8--8--8--8--8--8--8--8--|
D|-5--5--5--5--5--5--5--5--8--8--8--8--8--8--8--8--|


e|---------------------------------|
B|-----6---5------6---5-------6----|
G|-----7---7------7---7-------7----|
D|-0-0--------0-0--------0-0-------|
A|---------------------------------|
D|---------------------------------|
   x x        x x        x x        



e|-------------------------------------------------|
B|-------------------------------------------------|
G|-12-12-12-12-12-12-12-12-12-12-12-12-12-12-12-12-|
D|-10-10-10-10-10-10-10-10-10-10-10-10-10-10-10-10-|
A|-10-10-10-10-10-10-10-10-10-10-10-10-10-10-10-10-|
D|-10 10-10-10-10-10-10-10-10-10-10-10-10-10-10-10-|

There are no new riffs from here, so ill skip to "Whispering.. stand.."

e|-----------------------------------------|
B|-----------------------------------------|
G|---9h10--9---9h10--9---9h10--9---9h10--9-|
D|-8---------8---------8---------8---------|
A|-8---------8---------8---------8---------|
D|-8---------8---------8---------8---------|
                                             }x2
e|-----------------------------------------|
B|---8h10--8---8h10--8---8h10--8---8h10--8-|
G|---9h10--9---9h10--9---9h10--9---9h10--9-|
D|-0---------0---------0---------0---------| 
A|-0---------0---------0---------0---------|
D|-0---------0---------0---------0---------|

Back to chorus then

e|-------------------------------------------------------------------|
B|-------------------------------------------------------------------|
G|---------3---3-----3---3-----3---3-----3---3-----3---3-------------|
D|-0---0---0---0-----0---0-----0---0-----0---0-----0---0-------------|
A|-0---0---1---1-----1---1-----1---1-----1---1-----1---1-------------|
D|-0---0-------------------------------------------------------------|
   x   x


Middle bit thingy

e|----------------------------------------|
B|------------17-17--------------5--5--5--|
G|------------17-17--------------5--5--5--|
D|-0---0---0--15-15--0-0-0-0--0--3--3--3--|
A|-0---0---0---------0-0-0-0--0-----------|
D|-0---0---0---------0-0-0-0--0-----------|
   x   x   x         x x x x  x



e|----------------------------------------|
B|------------17-17--------------5--5--5--|
G|------------17-17--------------5--5--5--|
D|-0-0--0--0--15-15--0-0--0--0---3--3--3--|
A|-0-0--0--0---------0-0--0--0------------|
D|-0-0--0--0---------0-0--0--0------------|

e|----------------------------------------|
B|------------17-17--------------5--5--5--|
G|------------17-17--------------5--5--5--|
D|-0-0--0--0--15-15--0-0--0--0---3--3--3--|
A|-0-0--0--0---------0-0--0--0------------|
D|-0-0--0--0---------0-0--0--0------------|

e|-------------------------------10-10-10-|
B|------------17-17--------------10-10-10-|
G|------------17-17--------------8--8--8--|
D|-0-0--0--0--15-15--0-0--0--0------------|
A|-0-0--0--0---------0-0--0--0------------|
D|-0-0--0--0---------0-0--0--0------------|

e|------------10-10--------------10-10-10-|
B|------------10-10--------------10-10-10-|
G|------------8--8---------------8--8--8--|
D|-0-0--0--0---------0-0--0--0------------|
A|-0-0--0--0---------0-0--0--0------------|
D|-0-0--0--0---------0-0--0--0------------|

e|------------10-10--------------10-10-10-|
B|------------10-10--------------10-10-10-|
G|------------8--8---------------8--8--8--|
D|-0-0--0--0---------0-0--0--0------------|
A|-0-0--0--0---------0-0--0--0------------|
D|-0-0--0--0---------0-0--0--0------------|

e|-------------------------------10-10-10-|
B|------------17-17--------------10-10-10-|
G|------------17-17--------------8--8--8--|
D|-0-0--0--0--15-15--0-0--0--0------------|
A|-0-0--0--0---------0-0--0--0------------|
D|-0-0--0--0---------0-0--0--0------------|

e|----------------------------------------|
B|------------17-17--------------5--5--5--|
G|------------17-17--------------5--5--5--|
D|-0-0--0--0--15-15--0-0--0--0---3--3--3--|
A|-0-0--0--0---------0-0--0--0------------|
D|-0-0--0--0---------0-0--0--0------------|

e|---------------------------------------------------------------------|
B|-5--5--5------5--5--5------5--5--5------5--5--5--5--5--5-------------|
G|-5--5--5------5--5--5------5--5--5------5--5--5--5--5--5-------------|
D|-3--3--3------3--3--3------3--3--3------0--0--0----------------------|
A|-------------------------------------------------3--3--3-------------|
D|---------------------------------------------------------------------|

e|-----------------------------------------|
B|-----------------------------------------|
G|---9h10--9---9h10--9---9h10--9---9h10--9-|
D|-8---------8---------8---------8---------|
A|-8---------8---------8---------8---------|
D|-8---------8---------8---------8---------|
                                             }x2
e|-----------------------------------------|
B|---8h10--8---8h10--8---8h10--8---8h10--8-|
G|---9h10--9---9h10--9---9h10--9---9h10--9-|
D|-0---------0---------0---------0---------| 
A|-0---------0---------0---------0---------|
D|-0---------0---------0---------0---------|

Outro
e|-----------------------------------------|
B|---8h10--8---8h10--8---8h10--8---8h10--8-|
G|---9h10--9---9h10--9---9h10--9---9h10--9-|
D|-----------------------------------------| 
A|-----------------------------------------|
D|-----------------------------------------|

e|------------------------------------------------|
B|---8h10--8---8h10--8---8h10--8---8h10--8--------|
G|---9h10--9---9h10--9---9h10--9---9h10--9--------|
D|------------------------------------------12\0--|
A|------------------------------------------12\0--|
D|------------------------------------------12\0--|

The End

============================================================================
Tap to rate this tab
 
# A B C D E F G H I J K L M N O P Q R S T U V W X Y Z