Song name
# A B C D E F G H I J K L M N O P Q R S T U V W X Y Z

Misc Unsigned Bands - Open With A Joke - I Dont See The Attraction tab

Help us improve GuitareTab! Take a short survey!
-------------------------------------------------------------------------------
			     SONG NAME - Band Name
-------------------------------------------------------------------------------
Tabbed by: J.
Email:

e|--------------------------10--------------------10------------------10--------------------10------|
B|----10--10---10----12-----------10--10--10--12------10--10--10--12------10---10---10--12------10--|
G|--------------------------------------------------------------------------------------------------|
D|--------------------------------------------------------------------------------------------------|
A|--------------------------------------------------------------------------------------------------|
E|--------------------------------------------------------------------------------------------------|

e|----------------8--------------8---------------8---------------8--|
B|---8--8--8--10-----8--8--8-10-----8--8--8--10-----8--8--8--10-----|
G|------------------------------------------------------------------|
D|------------------------------------------------------------------|
A|------------------------------------------------------------------|
E|------------------------------------------------------------------|


for the verse, this riff plays over these chords:

D,   C,    A

for the chorus (not the pre chorus) these are the chords:

G,  A,  D.

i will follow with the rest soon.

keep reading.

J.

| /  slide up
|   slide down
| h  hammer-on
| p  pull-off
| ~  vibrato
| +  harmonic
| x  Mute note
===============================================================================
Related for Open With A Joke - I Dont See The Attraction tab