Song name
# A B C D E F G H I J K L M N O P Q R S T U V W X Y Z

Misc Unsigned Bands - The Catholics - Home tab

The catholics

home

plays whole song with fingers

                                                                      x3
e|---------------------------------------------------------------------------|
B|---------------------------------------------------------------------------|
G|---3--0-----0---0------0------0-------0------0-----------------------------|
D|--------------3------------------------------------------------------------|
A|---------5--------5--5-----1------3------5-------3--3----------------------|
E|---------------------------------------------------------------------------|
                                                                      x3
e|---------------------------------------------------------------------------|
B|---------------------------------------------------------------------------|
G|-----0----0----0-------0-----0-----0-----0---0-----------------------------|
D|-------------------------------------------0-------------------------------|
A|-------------1---1-1h3-----------------------------------------------------|
E|--1-----3------------------1----3----3-------------------------------------|

this plays underneath the solo for most of the song

palm mute
e|------------------------------------------------------------------------|
B|------------------------------------------------------------------------|
G|----3-------------------------------------------------------------------|
D|------5---5-3-----------------------------------------------------------|
A|--------5-----5-5--1-3-5-3-3--------------------------------------------|
E|------------------------------------------------------------------------|

that ^ plays once before this starts

e|---------------------------------------------------------------------------|
B|---------------------------------------------------------------------------|
G|-----0-0-0---0-0-0---0-----0-0-0-------------------------------------------|
D|-----5-5-5---5-5-5---5-----5-5-5-------------------------------------------|
A|---------------------------------------------------------------------------|
E|---------------------------------------------------------------------------|

e|--------------------------------------------------------------------------|
B|-------3--------------5s6--3~~--------------------------------------------|
G|-----3---3-5---3---5------------------------------------------------------|
D|---5---------5---5--------------------------------------------------------|
A|--------------------------------------------------------------------------|
E|--------------------------------------------------------------------------|


e|-------------------------------------------------------------------------|
B|--------3-----6--6s8--6---3---3------------------------------------------|
G|------3---3-5---------------5--------------------------------------------|
D|----5--------------------------------------------------------------------|
A|-------------------------------------------------------------------------|
E|-------------------------------------------------------------------------|

e|--------------------------------------------------------------------------|
B|--------3-----------------------------------------------------------------|
G|------3---3-5---3------2s3------------------------------------------------|
D|----5---------5---5--3-----5----------------------------------------------|
A|--------------------------------------------------------------------------|
E|--------------------------------------------------------------------------|


e|-------------------------------------------------------------------------|
B|-------------------------------------------------------------------------|
G|-----0-0-0---0-0-0---0-----0-0-0-----------------------------------------|
D|-----5-5-5---5-5-5---5-----5-5-5-----------------------------------------|
A|-------------------------------------------------------------------------|
E|-------------------------------------------------------------------------|

e|-------------------------------------------------------------------------|
B|-------3--------------5s6--3~~------3--s--5-3----------------------------|
G|-----3---3-5---3---5----------------3--s--5-3----------------------------|
D|---5---------5---5-------------------------------------------------------|
A|-------------------------------------------------------------------------|
E|-------------------------------------------------------------------------|


e|-------------------------------------6-----------------------------------|
B|--------3-----6--6s8--6---3---3--------8-6-------------------------------|
G|------3---3-5---------------5--------------------------------------------|
D|----5--------------------------------------------------------------------|
A|-------------------------------------------------------------------------|
E|-------------------------------------------------------------------------|

e|---------------------------------------------------------------------------|
B|--------3------------------------------------------------------------------|
G|------3---3-5---3------2s3-------------------------------------------------|
D|----5---------5---5--3-----5-----------3-------5~~~----3s5s3---------------|
A|---------------------------------3-s-5---3-s-1-----------------------------|
E|---------------------------------------------------------------------------|


e|---------------------------------------------------------------------------------|
B|---------------------------------------------------------------------------------|
G|---------------------------------------------------------------------------------|
D|---------------------------------------------------------------------------------|
A|---4s3--1------------------------------------------------------------------------|
E|----------3-1-3---1s3--1s3--1s3s1------------------------------------------------|

palm mute
e|------------------------------------------------------------------------|
B|------------------------------------------------------------------------|
G|------------------------------------------------------------------------|
D|-------------------------------3--------5-------------------------------|
A|---------------1---3s4--1----------3-1----------------------------------|
E|--1---1-1-1--3-------------3-1------------------------------------------|

palm mute -------------------------------------------------------------------|
e|---------------------------------------------------------------------------|
B|---------------------------------------------------------------------------|
G|----------------------------------------3-3--------------------------------|
D|----------------------------------------3-3--------------------------------|
A|---------------1-3s4-4s5--------3s1----------------------------------------|
E|--1---1-1-1--3-------------------------------------------------------------|
palm mute
e|-------------------------------------------------------------------------|
B|-----------------------------5b--3---------------------------------------|
G|-----3--x--3--x-x---5-x--5---5b--3---5-----------------------------------|
D|-----3--x--3--x-x---5-x--5-----------5-----------------------------------|
A|-------------------------------------------------------------------------|
E|-------------------------------------------------------------------------|

e|------------------------------------------------------------------------|
B|------------------------------------------------------------------------|
G|----5s6--3--5--3------3-------------------------------------------------|
D|----5s6--3--5--3--5---3--5----------------------------------------------|
A|------------------5------5----------------------------------------------|
E|------------------------------------------------------------------------|

palm mute
e|--------------------------------------------------------------------------|
B|-----------------------------5b--3----------------------------------------|
G|-----3--x--3--x-x---5-x--5---5b--3---5------------------------------------|
D|-----3--x--3--x-x---5-x--5-----------5------------------------------------|
A|--------------------------------------------------------------------------|
E|--------------------------------------------------------------------------|


e|--------3----------------------------------------------------------------|
B|-----------6p3----3------------------------------------------------------|
G|-----5b--------5----3----------------------------------------------------|
D|-----------------------5-5-----------------------------------------------|
A|-------------------------------------------------------------------------|
E|-------------------------------------------------------------------------|


e|-----3-----6-----6-s-8-----6--3--6--3------------------------------------|
B|-1s3---3---------6-s-8-----6--3--6--3---5b-p-3---------------------------|
G|----------------------------------------5b-p-3---------------------------|
D|------------------------------------------------5------------------------|
A|-------------------------------------------------------------------------|
E|-------------------------------------------------------------------------|


e|-----3---1s3----6--3-------------3--------------------------------------|
B|-1s3---3-------------6--3-----------6--3--------------------------------|
G|--------------------------5--5b-----------5--3--------------------------|
D|------------------------------------------------5-----------------------|
A|------------------------------------------------------------------------|
E|------------------------------------------------------------------------|


e|---6s8--6s8--6s8s6--------------------------------------------------------|
B|---6s8--6s8--6s8s6--------------------------------------------------------|
G|---------------------6s5--3-----------------------------------------------|
D|---------------------6s5--3--5--------------------------------------------|
A|-----------------------------5--------------------------------------------|
E|--------------------------------------------------------------------------|

e|--------3----------------------------------------------------------------|
B|-----------6p3----3------------------------------------------------------|
G|-----5b--------5----3----------------------------------------------------|
D|-----------------------5-5-----------------------------------------------|
A|-------------------------------------------------------------------------|
E|-------------------------------------------------------------------------|


e|-------6--8--8h9p8-6-8----6--------------------------------------------|
B|---6s8------------------8---6--8--3--6----3----------------------------|
G|----------------------------------------5------------------------------|
D|-----------------------------------------------------------------------|
A|-----------------------------------------------------------------------|
E|-----------------------------------------------------------------------|

e|---------3-------------------------------------------------------------|
B|------------6--3-------------------------------------------------------|
G|----5b------------5--3-------------------------------------------------|
D|------------------------5----------------------------------------------|
A|-----------------------------------------------------------------------|
E|-----------------------------------------------------------------------|


e|-----15-s-8--------------------8s9s10-----------13-----------------------|
B|-------------8--6s8---8----11--------------------------------------------|
G|-------------------------------------------------------------------------|
D|-------------------------------------------------------------------------|
A|-------------------------------------------------------------------------|
E|-------------------------------------------------------------------------|


e|--9p8p6---8-6------------13--8b--6-8---13--8b-6---6h8-6-----------------|
B|--------8------8-8~~----------------------------6-------8-8-------------|
G|------------------------------------------------------------------------|
D|------------------------------------------------------------------------|
A|------------------------------------------------------------------------|
E|------------------------------------------------------------------------|

e|--------15----13h14h15-----------------------------------------------|
B|--13s15----13--------------------------------------------------------|
G|---------------------------------------------------------------------|
D|---------------------------------------------------------------------|
A|---------------------------------------------------------------------|
E|---------------------------------------------------------------------|

thats all i got so ill pos t updates if u wanna email me send email to

mjdisco_3@hotmail.com
Tap to rate this tab
# A B C D E F G H I J K L M N O P Q R S T U V W X Y Z