Song name
# A B C D E F G H I J K L M N O P Q R S T U V W X Y Z

Misc Unsigned Bands - The Emo Kids - Alexs Song tab

Help us improve GuitareTab! Take a short survey!
e|--------------------------------------------------------------------|
B|--------------------------------------------------------------------|
G|---6-----6-----6---6-----6-----6---6-----6-----6---6-----6-----6----|
D|-----7-----7---------7-----7---------7-----7---------7-----7--------| x2
A|-7-----7-----7---5-----5-----5---0-----0-----0---0-----0-----0------|
E|--------------------------------------------------------------------|

e|--------------------------------------------------------------------|
B|--------------------------------------------------------------------|
G|---6-----6-----6---6-----6-----6---6-----6-----6---6-----6-----6----|
D|-----7-----7---------7-----7---------7-----7---------7-----7--------| x2
A|-7-----7-----7---9-----9-----9---4-----4-----4---5-----5-----5------|
E|--------------------------------------------------------------------|

e|--------------------------------------------------------------------|
B|--------------------------------------------------------------------|
G|---6-----6-----6---6-----6-----6---6-----6-----6---6-----6-----6----|
D|-----7-----7---------7-----7---------7-----7---------7-----7--------| 
A|---------------------------------5-----5-----5---4-----4-----4------|
E|-5-----5-----5---7-----7-----7--------------------------------------|

e|--------------------------------------------------------------------|
B|--------------------------------------------------------------------|
G|---6-----6-----6---6-----6-----6---6-----6-----6---6-----6----------|
D|-----7-----7---------7-----7---------7-----7---------7-----7--------| 
A|-5-----5-----5---7-----7-----7---9-----9-----9---4-----4-----4------|
E|--------------------------------------------------------------------|

e|--------------------------------------------------------------------|
B|--------------------------------------------------------------------|
G|---6-----6-----6---6-----6-----6---6-----6-----6---6-----6----------|
D|-----7-----7---------7-----7---------7-----7---------7-----7--------| 
A|-7-----7-----7---5-----5-----5---0-----0-----0---0-----0-----0------|
E|--------------------------------------------------------------------|

Repeat first part while playing this.

e|---------------------------------------------------------|
B|---------------------------------------------------------|
G|-11------9-----------------------------------------------|
D|-x--x8---x--x8---7-------9-------------------------------| x2
A|-9-------7-------x--x8---x--x8---------------------------|
E|-----------------5-------7-------------------------------|

e|---------------------------------------------------------|
B|---------------------------------------------------------|
G|-11------13------8-------9-------------------------------|
D|-x--x8---x--x8---x--x8---x--x8---------------------------| x2
A|-9-------11------6-------7-------------------------------|
E|---------------------------------------------------------|

e|---------------------------------------------------------|
B|---------------------------------------------------------|
G|-----------------9-------8-------------------------------|
D|-7-------9-------x--x8---x--x8---------------------------| 
A|-x--x8---x--x8---7-------6-------------------------------|
E|-5-------7-----------------------------------------------|

e|---------------------------------------------------------|
B|---------------------------------------------------------|
G|-9-------11------13------8-------------------------------|
D|-x--x8---x--x8---x---x8--x-------------------------------| 
A|-7-------9-------11------6-------------------------------|
E|---------------------------------------------------------|

e|---------------------------------------------------------|
B|---------------------------------------------------------|
G|-11~------9~---------------------------------------------|
D|-x-~------x~-----7~-------9~-----------------------------| 
A|-9-~------7~-----x~-------x~-----------------------------|
E|-----------------5~-------7~-----------------------------|

Outro                                      rit.
e|-------------------------------------------------------------0~-----|
B|-------------------------------------------------------------0~-----|
G|---6-----6-----6---6-----6-----6---6-----6-----6---6-----6---6~-----|
D|-----7-----7---------7-----7---------7-----7---------7-----7-7~-----| x2
A|-7-----7-----7---5-----5-----5---0-----0-----0---0-----0-----0~-----|
E|-------------------------------------------------------------0~-----|

e|-------------------------------------------------------|
B|-------------------------------------------------------|
G|-11~------9~-------------------------------------------|
D|-x-~------x~-----7~------------------------------------| 
A|-9-~------7~-----x~------------------------------------|
E|-----------------5~------------------------------------|


| /  slide up
| \  slide down
| h  hammer-on
| p  pull-off
| ~  vibrato
| +  harmonic
| x  Mute note
Related for The Emo Kids - Alexs Song tab