Song name
# A B C D E F G H I J K L M N O P Q R S T U V W X Y Z

Misc Unsigned Bands - Lost Connection - What You Give Isnt Always What You Get tab

INTRO
e| ----------------------------     | ------------------------|
b| ----------------------------     | ------------------------|
g| ----------------------------     | ------------------------|
d| 9-9--5-5-5--7-7-7--5-4-5-4-0  X2 | 5-5-5-5-5-5---------7-7-|
a| 7-7--3-3-3--5-5-5-----------     | 3-3-3-3-3-3--5-5-5--5-5-|
E| ----------------------------     | -------------3-3-3------|

 VERSE
e| ---------------------------------------------------------------------|
b| ---------------------------------------------------------------------|
g| ---------------------------------------------------------------------|
d| 9-9-9-9-9-9-9-9--5-5-5-5-5-5-5-5-------------------7-7-7-7-7-7-7-7---| x2
a| 7-7-7-7-7-7-7-7--3-3-3-3-3-3-3-3--5-5-5-5-5-5-5-5--5-5-5-5-5-5-5-5---|
E| ----------------------------------3-3-3-3-3-3-3-3--------------------|
  pm.................................................................

e| --------------------------------------------------------------------|
b| --------------------------------------------------------------------|
g| --------------------------------------------------------------------|
d| --------------------------------------------------------5-4-5-4-0---|  x2
a| --------------------------------------------------------------------|
E| --------------------------------------------------------------------|

e| -----------------------------------------------------|
b| -----------------------------------------------------|
g| ----9-----9------5-----5-------------------7-----7---|
d| 9-9-9-9-9-9--5-5-5-5-5-5------5-----5--7-7-7-7-7-7---|  x2
a| 7-7-7-7-7-7--3-3-3-3-3-3--5-5-5-5-5-5--5-5-5-5-5-5---|
E| --------------------------3-3-3-3-3-3----------------|
   * *   * *    * *   * *    * *   * *    * *   * *

e| ---------------------------------------------------------------------|
b| ---------------------------------------------------------------------|
g| ---------------------------------------------------------------------|
d| ---------------------------------------------------------5-4-5-4-0---| x2
a| ---------------------------------------------------------------------|
E| ---------------------------------------------------------------------|

 CHORUS
e| -------------------------------------------------|
b| -------------------------------------------------|
g| -------------------------------------------------|
d| -----------5-5-5-5-5-5-------------7-7-7-7-7-7---|  x4
a| 2-2-2-2-2--3-3-3-3-3-3--5-5-5-5-5--5-5-5-5-5-5---|
E| 0-0-0-0-0---------------3-3-3-3-3----------------|

e| -------------------------------------------------------------------|
b| -------------------------------------------------------------------|
g| 9-9-9-9-9--5-5-5-5-5-5--12-12-12-12-12--7-7-7-7--9--7--------------|
d| x-x-x-x-x--x-x-x-x-x-x---x--x--x--x--x--x-x-x-x--x--x--------------| (Guitar 2 last 2x)
a| 7-7-7-7-7--3-3-3-3-3-3--10-10-10-10-10--5-5-5-5--7--5--------------|
E| -------------------------------------------------------------------|

 BRIDGE
e| -------------------------------------------------------------------------|
b| -------------------------------------------------------------------------|
g| -------------------------------------------------------------------------|
d| 9-9-9-9-9--5-4-5-4-0--5-5-5-5-5--FILL--------------FILL--7-7-7-7-7--FILL-|
a| 7-7-7-7-7-------------3-3-3-3-3---------5-5-5-5-5--------5-5-5-5-5-------|
E| ----------------------------------------3-3-3-3-3------------------------|
               ^FILL^

 SOLO
e| ------------------3--     | ----------------------------------------------|
b| 5-5-8-5-5-3-3-3-3---3     | ----------------------------------------------|
g| ---------------------     | ----------------------------------------------|
d| ---------------------  4x | 9-9-9-9-9--5-5-5-5-5-5--5-5-5-5-5-4-4-4-4-5-4-|
a| ---------------------     | 7-7-7-7-7--3-3-3-3-3-3------------------------|
E| ---------------------     | ----------------------------------------------|

 OUTRO
e| ------------------3--     | ---------------------------------------------|
b| 5-5-8-5-5-3-3-3-3---3     | ---------------------------------------------|
g| ---------------------     | ---------------------------------------------|
d| ---------------------  4x | -----------5-5-5-5-5-5-------------7-7-7-7-7-|
a| ---------------------     | 2-2-2-2-2--3-3-3-3-3-3--5-5-5-5-5--5-5-5-5-5-|
E| ---------------------     | 0-0-0-0-0---------------3-3-3-3-3------------|

intro
verse
chorus
intro
verse
chorus
bridge
solo
chorus
outro
Tap to rate this tab
# A B C D E F G H I J K L M N O P Q R S T U V W X Y Z