Song name
# A B C D E F G H I J K L M N O P Q R S T U V W X Y Z

Misc Unsigned Bands - Dead By Tomorrow - Society tab

Band-Dead by tommorow
song-Society               we are a begining band so feel free to leave us
Album-none                 an e-mail and critisize. this is only the first
                           verse and chorus.
                 guitar 1
e]---------------------------------------------------------------------------|
b]-----5--------3-----1-------0----------------------------------------------|
g]--------------------------------------------repeat 2x----------------------|
d]---5--------3----1--------0------------------------------------------------|
a]---5--------3----1--------0------------------------------------------------|
e]---------0------------0----------------------------------------------------|

              guitar 2

e]--------------------------------------------------------------------------|
b]--------------------------------------------------------------------------|
g]--------------------------------------------------------------------------|
d]--------------------------------------------------------------------------|
a]--------------------------------------------------------------------------|
e]-------------------------------------0-00--0-00----0-00--0-00-------------|
PM.                                    . ..  . ..    . ..  . ..

                    Chorus

               guitar 1
e]--------------------------------------------------------------------------|
b]--------------------------------------------------------------------------|
g]--------------------------------------------------------------------------|
d]--------------------------------------------------7777--------------------|
a]---1-1111---3-3333---2-2222---5-5555--------------5555--------------------|
e]---------------------------------------000000-----------------------------|
PM.                                      ......

                      guitar 2
e]---------------------------------------------------------------------------|
b]---------------------------------------------------------------------------|
g]---------------------------------------------------------------------------|
d]----------------------------------------777777-----------777777------------|
a]---4-4444---6-6666---5-5555----7-7777---555555---9999----555555---9999-----|
e]---2-2222---4-4444---3-3333----5-5555------------7777-------------7777-----|
Tap to rate this tab
# A B C D E F G H I J K L M N O P Q R S T U V W X Y Z