Song name
# A B C D E F G H I J K L M N O P Q R S T U V W X Y Z

Misc Unsigned Bands - Broken Truce - Psychiatry tab

Rhythm Guitar

Order:

Intro
Verse
Pre Chorus
Chorus
Verse
Pre Chorus
Chorus
Solo
Chorus
Chorus (Part 2)


Intro:

E|-------------------------------------------------------6-~-~|
B|-------------------------------------------------------6-~-~|
G|---------------------------------5---------9-------3---5-~-~|
D|-------------------------------6--------10-------4-----8-~-~|
A|-18/6~~~--6----10---4---8----6-------10--------4-------8-~-~|
E|-16/4~~~4----8----2-----6--4-------8---------2---------6-~-~|

E|----------------------------6-~-~|
B|----------------------------6-~-~|
G|----5---------9-------3-----5-~-~|
D|---6--------10-------4------8-~-~|
A|--6-------10--------4-------8-~-~|
E|-4-------8---------2--------6-~-~|


Verse:

E|-4-4-x-x-4-4-/-8--8--x-8--8--/-2-2-x-x-2-2-/--6-~-~|
B|-4-4-x-x-4-4-/-8--8--x-8--8--/-2-2-x-x-2-2-/--6-~-~|
G|-5-5-x-x-5-5-/-9--9--x-9--9--/-3-3-x-x-3-3-/--5-~-~|
D|-6-6-x-x-6-6-/-10-10-x-10-10-/-4-4-x-x-4-4-/--8-~-~|
A|-6-6-x-x-6-6-/-10-10-x-10-10-/-4-4-x-x-4-4-/--8-~-~|
E|-4-4-x-x-4-4-/-8--8--x-8--8--/-2-2-x-x-2-2-/--6-~-~|

E|-4-4-x-x-4-4-/-8--8--x-8--8--/-2-2-x-x-2-2-/--6-~-~|
B|-4-4-x-x-4-4-/-8--8--x-8--8--/-2-2-x-x-2-2-/--6-~-~|
G|-5-5-x-x-5-5-/-9--9--x-9--9--/-3-3-x-x-3-3-/--5-~-~|
D|-6-6-x-x-6-6-/-10-10-x-10-10-/-4-4-x-x-4-4-/--8-~-~|
A|-6-6-x-x-6-6-/-10-10-x-10-10-/-4-4-x-x-4-4-/--8-~-~|
E|-4-4-x-x-4-4-/-8--8--x-8--8--/-2-2-x-x-2-2-/--6-~-~|


Pre Chorus:

E|-4---4-4-/-8----8--8--/-2---2-2-/--6-~-~|
B|-4---4-4-/-8----8--8--/-2---2-2-/--6-~-~|
G|-5---5-5-/-9----9--9--/-3---3-3-/--5-~-~|
D|-6---6-6-/-10---10-10-/-4---4-4-/--8-~-~|
A|-6---6-6-/-10---10-10-/-4---4-4-/--8-~-~|
E|-4---4-4-/-8----8--8--/-2---2-2-/--6-~-~|


Chorus

(Part 1)
E|------------------------------------------------|
B|------------------------------------------------|
G|------------------------------------------------|
D|-----10-----------13---------8---8--8-----------|
A|---10--10-------13--13------8--8--8---8---------|
E|-8------------11-----------6--------------------|

E|------------------------------------------------|
B|------------------------------------------------|
G|------------------------------------------------|
D|-----10-----------13---------8---8--8-----------|
A|---10--10-------13--13------8--8--8---8---------|
E|-8------------11-----------6--------------------|

(Part 2)
E|-8--8--8--8--/-11-11-11-11-/-13-13-13-13-x-13-13-13-13-|
B|-8--8--8--8--/-11-11-11-11-/-13-13-13-13-x-13-13-13-13-|
G|-9--9--9--9--/-12-12-12-12-/-14-14-14-14-x-14-14-14-14-|
D|-10-10-10-10-/-13-13-13-13-/-15-15-15-15-x-15-15-15-15-|
A|-10-10-10-10-/-13-13-13-13-/-15-15-15-15-x-15-15-15-15-|
E|-8--8--8--8--/-11-11-11-11-/-13-13-13-13-x-13-13-13-13-|

E|-13-13-13-13-/-11-11-11-11-/-8---8---8---8--|
B|-13-13-13-13-/-11-11-11-11-/-8---8---8---8--|
G|-14-14-14-14-/-12-12-12-12-/-9---9---9---9--|
D|-15-15-15-15-/-13-13-13-13-/-10--10--10--10-|
A|-15-15-15-15-/-13-13-13-13-/-10--10--10--10-|
E|-13-13-13-13-/-11-11-11-11-/-8---8---8---8--|

This is a catchy song a played by my band (Broken Truce)
Cheers for looking Stenty !
Tap to rate this tab
 
# A B C D E F G H I J K L M N O P Q R S T U V W X Y Z