Guitaretab - guitar tabs
Song name
# A B C D E F G H I J K L M N O P Q R S T U V W X Y Z

Misc Unsigned Bands - The Specs - Good Luck This Time tab

Good Luck (This Time)
The Specs
Declaration of Independence

Tab Legend:
x  Mute/scratch
Underlined 3 (over 3 notes)  Quarter note triplet
PM...  Palm Mute
// - Slide down to nowhere
#  Stop note short


  Intro
e|---------------|
B|----------- 3 -|
G|-6x66x66x6-645-|
D|-6x66x66x6-645-|
A|-4x44x44x4-423-|
E|---------------| x4

  Verse 1
 (Repeat this part 2x, and then go to Verse 1 pt. 2) |  x1
e|-----------------------------------|---------------|---------------|
B|-----------------------------------|---------------|----------- 3 -|
G|-6666666666666666------------------|-4x-----4x-----|-6x66x66x6-645-|
D|-6666666666666666-4444444444444444-|-4x-66x-4x-66x-|-6x66x66x6-645-|
A|-4444444444444444-4444444444444444-|-2x-66x-2x-66x-|-4x44x44x4-423-|
E|------------------2222222222222222-|----44x---44x-|---------------|
PM ................ ................

  Verse 1 pt. 2
e|-----------------------------------|
B|-----------------------------------|
G|-4444444444444444------------------|
D|-4444444444444444-6666666666666666-|
A|-2222222222222222-6666666666666666-|
E|------------------4444444444444444-|

  Chorus 1
e|-4-------2------1------2-----4-----|
B|-6-------2------2------2-----4-----|
G|-6-------3------3------3-----3-----|
D|-6-(x16)-4------3(x16)-4-----6-----|
A|-4-------4(x16)-1------4(x8)-6(x8)-|
E|---------2-------------2-----4-----|

  After Chorus
e|-------------------------------|
B|----------- 3 ----------- 3 ---|
G|-6x66x66x6-645-6x66x66x6-645//-|
D|-6x66x66x6-645-6x66x66x6-645//-|
A|-4x44x44x4-423-4x44x44x4-423//-|
E|-------------------------------|

Verse 2
(No guitar 1st 4 measures)
[ Tab from: http://www.guitaretab.com/m/misc-unsigned-bands/72321.html ]
 |    x1       |      x1        |
e|-------------|---------------|-----------------------------------|
B|-------------|----------- 3 -|-----------------------------------|
G|-4x----4x----|-6x66x66x6-645-|-6666666666666666------------------|
D|-4x66x-4x66x-|-6x66x66x6-645-|-6666666666666666-4444444444444444-|
A|-2x66x-2x66x-|-4x44x44x4-423-|-4444444444444444-4444444444444444-|
E|---44x---44x-|---------------|------------------2222222222222222-|
                              PM ................ ................

  Verse 2 pt. 2 x2
e|-----------------------------------|
B|-----------------------------------|
G|-4444444444444444------------------|
D|-4444444444444444-6666666666666666-|
A|-2222222222222222-6666666666666666-|
E|------------------4444444444444444-|

  Chorus 2
e|-4-------2------1------2-----4-----|
B|-6-------2------2------2-----4-----|
G|-6-------3------3------3-----3-----|
D|-6-(x16)-4------3(x16)-4-----6-----|
A|-4-------4(x16)-1------4(x8)-6(x8)-|
E|---------2-------------2-----4-----|

  Bridge
 |      x4           |                x2
e|-------------------|-----------------------------------|
B|-------------------|-----------------------------------|
G|---------66#-33----|-----------------------------------|
D|-44#-66#-66#-33-33-|-4444444444444444-6666666666666666-|
A|-44#-66#-44#-11-33-|-4444444444444444-6666666666666666-|
E|-22#-44#--------11-|-2222222222222222-4444444444444444-|
                    PM ................ ................

  Chorus 
e|-4-------2------1------2-----4-----|
B|-6-------2------2------2-----4-----|
G|-6-------3------3------3-----3-----|
D|-6-(x16)-4------3(x16)-4-----6-----|
A|-4-------4(x16)-1------4(x8)-6(x8)-|
E|---------2-------------2-----4-----| x3

  Outro
 |      x3       |      x1         |
e|---------------|-----------------|
B|----------- 3 -|- 3  3  3 -----|
G|-6x66x66x6-645-|-645-645-645-6~~-|
D|-6x66x66x6-645-|-645-645-645-6~~-|
A|-4x44x44x4-423-|-423-423-423-4~~-|
E|---------------|-----------------|

www.specsrock.com
Related for The Specs - Good Luck This Time tab