Song name
# A B C D E F G H I J K L M N O P Q R S T U V W X Y Z

Misc Unsigned Bands - The Searchlight Is Safety - A Light In The Calm tab

-----------------------------------------------------------------------------
	    A Light In The Calm-The Searchlight Is Safety
-----------------------------------------------------------------------------
Tabbed by:ME


Tuning:Standard


Intro *4

e|-------8-----5-----5h6p5----------------------------------|
B|---6-----6-----6---------5-6-5-8-6-5-5-5h6----------------|
G|-7---7-----7-----7-------------------------5h7------------|
D|----------------------------------------------------------|
A|----------------------------------------------------------|
E|----------------------------------------------------------|


  Dm       C      Dm       Bb      C
e|-5-------3-------5-------1-------3------------------------|
B|-6-------5-------6-------3-------5------------------------|
G|-7-------5-------7-------3-------5------------------------|
D|-7-------5-------7-------3-------5------------------------|
A|-5-------3-------5-------1-------3------------------------|
E|-5-------3-------5-------1-------3------------------------|


Pre-Verse *4

e|---8---10p8---12p8---10p8---8-----------------------------|
B|-10--10-----10-----10-----10---8---10p8--8----------------|
G|-----------------------------10--10----10-9-9h10p9---9----|
D|---------------------------------------------------10-----|
A|----------------------------------------------------------|
E|----------------------------------------------------------|

   *8      *8      *8      *2      *6
  Dm       C      Dm       Bb      C
e|-5-------3-------5-------1-------3------------------------|
B|-6-------5-------6-------3-------5------------------------|
G|-7-------5-------7-------3-------5------------------------|
D|-7-------5-------7-------3-------5------------------------|
A|-5-------3-------5-------1-------3------------------------|
E|-5-------3-------5-------1-------3------------------------|

Pre-Chorus *8 -verse chords strummed over it

e|--8-8-8--5-5-5--0-0---------------------------------------|
B|--6-6-6--6-6-6--6-6---------------------------------------|
G|--7-7-7--7-7-7--7-7---------------------------------------|
D|----------------------------------------------------------|
A|----------------------------------------------------------|
E|----------------------------------------------------------|

Chorus
  *4

Guitar 1
e|----------------------------------------------------------|
B|----------------------------------------------------------|
G|-14--16--10--9--------------------------------------------|
D|-x---x---x---x--------------------------------------------|
A|-12--14--8---7--------------------------------------------|
E|----------------------------------------------------------|

Guitar 2

e|----------------------------------------------------------|
B|----------------------------------------------------------|
G|--7--10--8------------------------------------------------|
D|--7--10--8------------------------------------------------|
A|--5--8---6------------------------------------------------|
E|----------------------------------------------------------|

Breakdown

*8

e|--12-12-12-12---------------------------------------------|
B|--11-11-15-11---------------------------------------------|
G|--10-10-10-10---------------------------------------------|
D|----------------------------------------------------------|
A|----------------------------------------------------------|
E|----------------------------------------------------------|


The interlude comes next and the bass leads the first part.

    Guitar 1           Guitar 2
e|--8-5---------------8-------------------------------------|
B|------6-5-6---------10------------------------------------|
G|-----------------------8----------------------------------|
D|-----------------------10-9-------------------------------|
A|--------------------------10------------------------------|
E|----------------------------------------------------------|


2nd part

e|----------------------------------------------------------|
B|----------------------------------------------------------|
G|----------------------------------------------------------|
D|--------2-3--------2-3-------2-3-------3-2----------------|
A|--5-5-5-----3-3-3------1-1-1-----0-0-0--------------------|
E|----------------------------------------------------------|


Guitar 1 *2

e|----------------------------------------------------------|
B|----------------------------------------------------------|
G|-----14-12-10-12p10-9-10-9-10-12-10-9h10p9---9----9-------|
D|--12---------------------------------------10--10---10----|
A|----------------------------------------------------------|
E|----------------------------------------------------------|

e|-----------------------------------------------------------|
B|-----------------------------------------------------------|
G|--14-14--12-12--10-10--9--9---9h10--9----------------------|
D|--12-12--12-12--12-12--10-10--10----10---------------------|
A|-----------------------------------------------------------|
E|-----------------------------------------------------------|


Guitar 2-Derek does a variation of these chords but these are the basic ones

e|----------------------------------------------------------|
B|----------------------------------------------------------|
G|----------------------------------------------------------|
D|--3-2-3-2-3-2-3-2-----------------------------------------|
A|--5-5-3-3-1-1-0-0-----------------------------------------|
E|----------------------------------------------------------|

Besides some variations in the verse that's it. Im tired and don't want to finish but 
day when i feel unlike myself perhaps I'll think of this and finish. Enjoy!
Tap to rate this tab
# A B C D E F G H I J K L M N O P Q R S T U V W X Y Z