Song name
# A B C D E F G H I J K L M N O P Q R S T U V W X Y Z

Misc Unsigned Bands - Lost Connection - Cool Solo tab

Help us improve GuitareTab! Take a short survey!
 INTRO/OUTRO
e| -----------------------------------|
b| -----------------------------------|
g| -----------------------------------|
d| ---5--10-------  x4 (with tremolo--|
a| 7--3---8--10--5--------------------|
E| 5----------8--3--------------------|

e| ------------------------------------------|
b| ------------------------------------------|
g| ------------------------------------------|
d| -------5-5-5-5--10-10-10-10---------------|  x4
a| 7-7-7--3-3-3-3---8--8--8--8--10-10--5-5---|
E| 5-5-5-------------------------8--8--3-3---|

 VERSE
e| ----------------------------------------|
b| ----------------------------------------|
g| ----------------------------------------|
d| -------5-5-5-5--10-10-10-10-------------| (guitar 2)
a| 7-7-7--3-3-3-3---8--8--8--8--10-10--5-5-|
E| 5-5-5-------------------------8--8--3-3-|
 pm.......................................

e| -----------------------------------|
b| -----------------------------------|
g| -----------------------------------|
d| ----7--------7--------7--------7---| (guitar 1)
a| 7-7---7--7-7---7--7-7---7--7-7---7-| (joins in after 2x guitar 2)
E| -----------------------------------|
 pm..................................

 CHORUS
e| -------------------------------------    | x5    x4--------|     x4
b| -------------------------------------    | ----------------|
g| --7----------------------------------    | ----------------|
d| 7-7-7-7-7-7--10-10-10-10------------- x3 | ------10--------| (guitar 2)
a| 5-5-5-5-5-5---8--8--8--8--10-10-10-10    | 8------8-----10-|
E| ---------------------------8--8--8--8    | 6-------------8-|
     *
 (guitar 1)
e| ---------------------------    | ---------------------------------------|
b| ---------------------------    | ---------------------------------------|
g| ---------------------------    | ---------------------------------------|
d| -----------7-8-7-5-7-8-7-10 x3 | 12-12-12-12-12-15-15-15-15-------------|
a| ---------------------------    | ---------------------------15-15-15-15-|
E| ---------------------------    | ---------------------------------------|

 SOLO
e| -------------------------            | ------------------------|
b| -------------------------            | ------------------------|
g| --------------4---2-2-1-1            | --6-7---7-6---4---4-4-2-|
d| 4-6-7-0-7-6-2---2--------    x8      | 4-----0-----2---2-------| last time
a| ------------------------- (guitar 1) | ------------------------|
E| -------------------------            | ------------------------|

e| ----------------------------           | ------------------------------|
b| ----------------------------           | ------------------------------|
g| ----------------------------           | ------------------------------|
d| -------7-7-7--2-2-2---------    x5     | -------7-7-7--2-2-2-----------| x4
a| 4-4-4--5-5-5--0-0-0--2-2-2-2 (guitar2) | 4-4-4--5-5-5--0-0-0--2-2-2-2--|
E| 2-2-2----------------0-0-0-0           | 2-2-2----------------0-0-0-0--|
                                                                 * * * *


intro
verse
chorus
verse
chorus
solo
chorus
outro
Related for Lost Connection - Cool Solo tab