Song name
# A B C D E F G H I J K L M N O P Q R S T U V W X Y Z

Misc Unsigned Bands - A Day Unnoticed - Watch Me Fall Away tab

intro:

e--------------------------------------------------|
b--------------------------------------------------|
g-7-------9----------------------------------------| times 4
d-7(4)7---9(4)5------------------------------------|
a-5---7(4)7---5(4)---------------------------------|
e-----5-------3------------------------------------|

part where drums come in and singing starts;verses:

e--------------------------------------------------|
b--------------------------------------------------|
g-7-------9----------7-------9---------------------|
d-7(3)7---9(3)5---*3-7(2)7---9(2)5---*3------------|
a-5---7(3)7---5(3)---5---7(2)7---5(2)--------------|
e-----5-------3----------5-------3-----------------|

Chorus:

e--------------------------------------------------|
b--------------------------------------------------|
g-7-------9----------------------------------------|
d-7(4)7---9(4)5---*4-------------------------------|
a-5---7(4)7---5(4)---------------------------------|
e-----5-------3------------------------------------|

solo part after chorus, before second verse:

e--------------------------------------------------|
b--------------------------------------------------|
g--------------------------------------------------|
d-12-12-11-12-16-12-11-11-12-12-11-----------------| times 2
a--------------------------------------------------|
e--------------------------------------------------|

 -play verse 1 again-
 -play chorus again-
 -play solo again-

palm mute...
e--------------------------------------------------|
b--------------------------------------------------|
g-7-------9----------------------------------------|
d-7(3)7---9(3)5----*4------------------------------|
a-5---7(3)7---5(3)---------------------------------|
e-----5-------3------------------------------------|

 -play chorus until end- (solo in backround)

...and that's it!...
Tap to rate this tab
# A B C D E F G H I J K L M N O P Q R S T U V W X Y Z