Song name
# A B C D E F G H I J K L M N O P Q R S T U V W X Y Z

Misc Unsigned Bands - The Skatastrophes - The Skatastrophe tab

Help us improve GuitareTab! Take a short survey!
----------------------------------------------------------------------------
   The Skatastrophe (yes, thats the name of the song) - The Skatastrophes
----------------------------------------------------------------------------
Tabbed by:Chase Holdren
Email:

Tuning:Standard

This does include the timing(somewhat) during most of the song, and there is no 11's in 
song, those are 1's.

Intro
e|---------------------------------|---------------------------------------|
B|---------------------------------|---------------------------------------|
G|-33-----33-----33-----33---xx-xx-|-5-5-55------------3-3-33--------------|
D|-33-----33-----33-----33---xx-xx-|-5-5-55---5-5-55---3-3-33---3-3-33-(x4)|
A|-11-----11-----11-----11---xx-xx-|-3-3-33---5-5-55---1-1-11---3-3-33-----|
E|---------------------------------|----------3-3-33------------1-1-11-----|

Ska-strokes (Up-strokes)
e|-11-1-1-1-2-2/1---11-1-1-1-2-1---11-1-1-1-2-2/1---2222221----------------|
B|-11-1-1-1-2-2/1---11-1-1-1-2-1---11-1-1-1-2-2/1---2222221----------------|
G|-11-1-1-1-2-2/1---11-1-1-1-2-1---11-1-1-1-2-2/1---2222221----------------|
D|-------------------------------------------------------------------------|
A|-------------------------------------------------------------------------|
E|-------------------------------------------------------------------------|

Still Ska-strokes
e|-11-1-1--33-3-3--22-2-2--22-2-2--------3--3--3--3--22-2-2--11-1-1--------|
B|-11-1-1--44-4-4--33-3-3--22-2-2--(x4)--3--3--3--3--22-2-2--11-1-1--(x3)--|
G|-11-1-1--55-5-5--44-4-4--22-2-2--------3--3--3--3--22-2-2--11-1-1--------|
D|-------------------------------------------------------------------------|
A|-------------------------------------------------------------------------|
E|-------------------------------------------------------------------------|

e|-2222221--|--11-1-1--33-3-3--22-2-2--22-2-2------------------------------|
B|-2222221--|--11-1-1--44-4-4--33-3-3--22-2-2--(x2)------------------------|
G|-2222221--|--11-1-1--55-5-5--44-4-4--22-2-2------5-5-55------------3-3-33|
D|----------|--------------------------------------5-5-55---5-5-55---3-3-33|
A|----------|--------------------------------------3-3-33---5-5-55---1-1-11|
E|----------|-----------------------------------------------3-3-33---------|

e|------------11-1-1-1-2-2/1---11-1-1-1-2-1---11-1-1-1-2-2/1---2222221-----|
B|------------11-1-1-1-2-2/1---11-1-1-1-2-1---11-1-1-1-2-2/1---2222221-----|
G|------------11-1-1-1-2-2/1---11-1-1-1-2-1---11-1-1-1-2-2/1---2222221-----|
D|3-3-33-------------------------------------------------------------------|
A|3-3-33-(x4)--------------------------------------------------------------|
E|1-1-11-------------------------------------------------------------------|

e|-11-1-1--33-3-3--22-2-2--22-2-2-------3--3--3--3--22-2-2--11-1-1---------|
B|-11-1-1--44-4-4--33-3-3--22-2-2--(x4)-3--3--3--3--22-2-2--11-1-1-(x3)----|
G|-11-1-1--55-5-5--44-4-4--22-2-2-------3--3--3--3--22-2-2--11-1-1---------|
D|-------------------------------------------------------------------------|
A|-------------------------------------------------------------------------|
E|-------------------------------------------------------------------------|

e|-2222221--|--11-1-1--33-3-3--22-2-2--22-2-2------------------------------|
B|-2222221--|--11-1-1--44-4-4--33-3-3--22-2-2-(x4)-------------------------|
G|-2222221--|--11-1-1--55-5-5--44-4-4--22-2-2-------5-5-55-----------------|
D|----------|---------------------------------------5-5-55---5-5-55--------|
A|----------|---------------------------------------3-3-33---5-5-55--------|
E|----------|------------------------------------------------3-3-33--------|

                         Solo (yay!)
e|----------------------|--------------------------------------------------|
B|----------------------|--------------------------------------------------|
G|-3-3-33---------------|--------------------------------------------------|
D|-3-3-33---3-3-33-(x4)-|--------------------------------------------------|
A|-1-1-11---3-3-33------|-55557777999/10/9---555577779-7-5------(x4)-------|
E|----------1-1-11------|----------------------------------9-7-------------|

"Secret" Part

e|-------------------------------------------------------------------------|
B|-------------------------------------------------------------------------|
G|-5-5-55------------3-3-33------------------------------------------------|
D|-5-5-55---5-5-55---3-3-33---3-3-33-(x4)----------------------------------|
A|-3-3-33---5-5-55---1-1-11---3-3-33---------------------------------------|
E|----------3-3-33------------1-1-11---------------------------------------|

Done!!!!

| /  slide up
|   slide down
| h  hammer-on
| p  pull-off
| ~  vibrato
| +  harmonic
| x  Mute note
===============================================================================
Related for The Skatastrophes - The Skatastrophe tab