Song name
# A B C D E F G H I J K L M N O P Q R S T U V W X Y Z

Misc Unsigned Bands - Pyrochild - Ice Cream Man tab

This is my first tab so it might be rusty. I wrote the song myself(the verses anyway).

Chorus
E:------------------------------------------------------|
B:------------------------------------------------------|
G:------------------------------------------------------|
D:-------7--7/9---12/11/12/11/12---7--7/9---------------|  x2
A:---9---5--5/7---10/9/-10/-9/10---5--5/7---------------|
E:---7--------------------------------------------------|

Verse
E:-----------------------|
B:-----------------------|
G:-----------------------|
D:-----------------------|  x3, verse 2 is 4 times.
A:---9-9-7-7-5-5-7-7-9-9-|
E:---7-7-5-5-3-3-5-5-7-7-|

Chorus, then verse, then chorus then

E:-----------------------|
B:-----------------------|
G:---8-8-6-6-4-4-6-6-8-8-|
D:---x-x-x-x-x-x-x-x-x-x-|  x3 then chorus twice
A:---9-9-7-7-5-5-7-7-9-9-|
E:---7-7-5-5-3-3-5-5-7-7-|

Chorus: I am ice cream man, running over little kids with my van
when i ring my bell all the little fat kids run like hell.

Verse 1: I got parfaits, chocolate ice cream, all the things you eat in your dreams, i 
sprinkles and candy canes even some smuggled cocaine.

Verse 2: Granpa comes just once in 8 years, forget grandpa ice cream man's here, i got 
just like his skin, collect 25 and then you will win.
Tap to rate this tab
 
# A B C D E F G H I J K L M N O P Q R S T U V W X Y Z