Guitaretab - guitar tabs
Song name
# A B C D E F G H I J K L M N O P Q R S T U V W X Y Z

Misc Unsigned Bands - Bleeding Angels Cry - Voices tab

=============================================================================            
       BLEEDING ANGELS CRY - VOICES
=============================================================================

Intro (x4)
Guitar 1
e|---------------------------------------------|
B|---------------------------------------------|
G|------------------------5-5-5-5-5--7-7-7-7-7-|
D|--7-7-7-7-7--9-9-9-9-9--5-5-5-5-5--7-7-7-7-7-|
A|--7-7-7-7-7--9-9-9-9-9-----------------------|
E|---------------------------------------------|

Guitar 2
e|--------------------------------------------|
B|--------------------------------------------|
G|-----------------------5-5-5-5-5--7-7-7-7-7-|
D|--5-5-5-5-5--7-7-7-7-7----------------------|
A|--------------------------------------------|
E|--------------------------------------------|

Verse (x2)
Guitar 1
e|--------------------------------------------------------------------|
B|--------------------------------------------------------------------|
G|-------------------------------------11--11--11--11--11--11--11--11-|
D|---9---9---9---9---9---9---9---9---9---9---9---9---9---9---9---9----|
A|-7---7---7---7---7---7---7---7--------------------------------------|
E|--------------------------------------------------------------------|

Guitar 2
e|---------------------------------------------------------------------|
B|--3---------------3----------------3------------------3--------------|
G|----4---------------4----------------4------------------4------------|
D|------5--6--4--2------5--6--4--2-------5--6--4--2---------5--6--4--2-|
A|---------------------------------------------------------------------|
E|---------------------------------------------------------------------|

Chorus   (x2)
Guitar 1
e|-----------------------------------------------------------------|
B|--------------------7---7--7------------------7--7--7---1---1----|
G|--8--7--7--8----8-------------8--7--7--8----8-------------2----1-|
D|--------------8---------------------------8----------------------|
A|-----------------------------------------------------------------|
E|-----------------------------------------------------------------|

Guitar 2
e|--7--7--7--7--5------------------5--4--5--5--4-----5--4--5--5--4---|
B|------------------5--5--5--5--7-----------------2----------------2-|
G|-------------------------------------------------------------------|
D|-------------------------------------------------------------------|
A|-------------------------------------------------------------------|
E|-------------------------------------------------------------------|

Verse (x2)
Guitar 1
e|--------------------------------------------------------------------|
B|--------------------------------------------------------------------|
G|-------------------------------------11--11--11--11--11--11--11--11-|
D|---9---9---9---9---9---9---9---9---9---9---9---9---9---9---9---9----|
A|-7---7---7---7---7---7---7---7--------------------------------------|
E|--------------------------------------------------------------------|

Guitar 2
e|---------------------------------------------------------------------|
B|--3---------------3----------------3------------------3--------------|
G|----4---------------4----------------4------------------4------------|
D|------5--6--4--2------5--6--4--2-------5--6--4--2---------5--6--4--2-|
A|---------------------------------------------------------------------|
E|---------------------------------------------------------------------|
[ Tab from: http://www.guitaretab.com/m/misc-unsigned-bands/72612.html ]
Chorus   (x2)
Guitar 1
e|-----------------------------------------------------------------|
B|--------------------7---7--7------------------7--7--7---1---1----|
G|--8--7--7--8----8-------------8--7--7--8----8-------------2----1-|
D|--------------8---------------------------8----------------------|
A|-----------------------------------------------------------------|
E|-----------------------------------------------------------------|

Guitar 2
e|--7--7--7--7--5------------------5--4--5--5--4-----5--4--5--5--4---|
B|------------------5--5--5--5--7-----------------2----------------2-|
G|-------------------------------------------------------------------|
D|-------------------------------------------------------------------|
A|-------------------------------------------------------------------|
E|-------------------------------------------------------------------|

Bridge
Guitar 1
e|--13-12-13-11-10-----------10/11-11-11-12-1210------16----16--16-15-16----|
B|-----------------13-12-10------------------------14-----14----------------|
G|--------------------------------------------------------------------------|
D|--------------------------------------------------------------------------|
A|--------------------------------------------------------------------------|
E|--------------------------------------------------------------------------|

e|--15/14/10/9/89101214-----------------------------------------------------|
B|----------------------------12-1210-15-15-151413121110--11b---------------|
G|--------------------------------------------------------------------------|
D|--------------------------------------------------------------------------|
A|--------------------------------------------------------------------------|
E|--------------------------------------------------------------------------|

Guitar 2
e|-------------------------------------------------------------------------|
B|-------------------------------------------------------------------------|
G|-------------6---6--------------------------------------------7--7--7--7-|
D|---------------7----7--9-9-9-9-11--11--11--------------------------------|
A|--9-11-9-11--------------------------------9--9--9--9--9--7--------------|
E|-------------------------------------------------------------------------|

e|----------------------------------------------------------------------------|
B|----------------------------------------------------------------------------|
G|----------------------------------------------------------------------------|
D|--------7------7-------7--7--------------6/7/8--10--10987-------------------|
A|--5--5----5--5--------------------7--7--------------------------------------|
E|-----------------5--5-------5--5----------------------------------8----9b---|

Chorus   (x4
Guitar 1
e|-----------------------------------------------------------------|
B|--------------------7---7--7------------------7--7--7---1---1----|
G|--8--7--7--8----8-------------8--7--7--8----8-------------2----1-|
D|--------------8---------------------------8----------------------|
A|-----------------------------------------------------------------|
E|-----------------------------------------------------------------|

Guitar 2
e|--7--7--7--7--5------------------5--4--5--5--4-----5--4--5--5--4---|
B|------------------5--5--5--5--7-----------------2----------------2-|
G|-------------------------------------------------------------------|
D|-------------------------------------------------------------------|
A|-------------------------------------------------------------------|
E|-------------------------------------------------------------------|
Related for Bleeding Angels Cry - Voices tab
Advertisement will be closed in 10 seconds