Song name
# A B C D E F G H I J K L M N O P Q R S T U V W X Y Z

Misc Unsigned Bands - The Narwhals - Call The Ripper tab

Tuning:EADGBe

Chords: D, B, G, A: Verse, Chorus
        G, A: Post Chorus Solos  

Lead Guitar:
Intro, Chorus

e|---------------------------------------------------------------------------|
B|---------------------------------------------------------------------------|
G|----7---7---6---6---4---4---2---2---0---0-----------0---0---2---2----------|
D|--------------------------------------------4---4--------------------------|
A|---------------------------------------------------------------------------|
E|---------------------------------------------------------------------------|

Post Chorus
e|---------------------------------------------------------------------------|
B|---------------------------------------------------------------------------|
G|----6---7---6---7---9---7---6---7---6---7---6---7---9----------------------|
D|---------------------------------------------------------------------------|
A|---------------------------------------------------------------------------|
E|---------------------------------------------------------------------------|

Solo: x2
e|---------------------------------------------------------------------------|
B|---------------------------------------------------7-----------------------|
G|---6---7---6---7---9---7---6---7---6---7---6---7-------9---7---9-----------|
D|---------------------------------------------------------------------------|
A|---------------------------------------------------------------------------|
E|---------------------------------------------------------------------------|

e|---------------------------------------------------------------------------|
B|---6---7---6---7---9---7---6---7---6h7p6h7p6h7p6h7---7---------------------|
G|---------------------------------------------------------------------------|
D|---------------------------------------------------------------------------|
A|---------------------------------------------------------------------------|
E|---------------------------------------------------------------------------|

Bass:
G|---------------------------------------------------------------------------|
D|---------------------------------------------------------------------------|
A|---5---5---4---4---2---2--0-0----------------------------------------------|
E|--------------------------------3---3---2---2---3---3---5---5--------------|

h= hammer on
p= pull off
Tap to rate this tab
 
# A B C D E F G H I J K L M N O P Q R S T U V W X Y Z