Song name
# A B C D E F G H I J K L M N O P Q R S T U V W X Y Z

Misc Unsigned Bands - Chasing Yesterday - Lack Of Senses tab

Artist: Chasing Yesterday
Album:  Life As We Know It
Song:   Lack of Senses

Tuning: Standard 7 String; from Low to High (B,E,A,D,G,B,e)

Intro (w/Phaser)
   v v^v^ v v^v^ v v^v^ v v^v^   v^v^   v^v^   v^v^
e|-x-xxxx-x-xxxx-x-xxxx-x-xxxx---xxxx---xxxx---xxxx-------------|
B|-x-xxxx-x-xxxx-x-xxxx-x-xxxx---xxxx---xxxx---xxxx-------------|
G|-x-xxxx-x-xxxx-x-xxxx-x-xxxx---xxxx---xxxx---xxxx-------------|
D|-x-xxxx-x-xxxx-x-xxxx-x-xxxx---xxxx---xxxx---xxxx-------------|
A|-x-xxxx-x-xxxx-x-xxxx-x-xxxx---xxxx---xxxx---xxxx-------------|
E|-x-xxxx-x-xxxx-x-xxxx-x-xxxx---xxxx---xxxx---xxxx-------------|
B|-x-xxxx-x-xxxx-x-xxxx-x-xxxx-0-xxxx-0-xxxx-0-xxxx-0-----------|

e|-----------------------------------|
B|-----------------------------------|
G|-----------------------------------|
D|-----------------------------------|
A|---2------0----0----2------0----0--|
E|--2-2-2--0-0--0-0--2-2-2--0-0--0-0-|
B|-0------3----2----0------3----2----|

Verse 1 (CLean)
    v v^v^ v v^v^ v v^v^ v v^v^ v v^v^ v v^v^ v v^v^ v v^v^
e|-----------------------------------------------------------|----|
B|*---------------------------------------------------------*|----|
G|-----------------------------------------------------------|----|
D|------------------------------7-7777-7-7777-5-5555-5-5555--|-X6-|
A|--2-2222-2-2222-5-5555-5-5555-7-7777-7-7777-5-5555-5-5555--|----|
E|*-2-2222-2-2222-5-5555-5-5555-5-5555-5-5555-3-3333-3-3333-*|----|
B|--0-0000-0-0000-3-3333-3-3333------------------------------|----|

Chorus (w/Heavy Distortion)
    v v^v^ v v^v^ v v^v^ v v v  v v^v^ v v^v^ v v^v^ v v^v^
e|-----------------------------------------------------------|----|
B|*---------------------------------------------------------*|----|
G|-----------------------------------------------------------|----|
D|---------5-5555-7-7777-9-9-9---------5-5555-7-7777-9-9999--|-X3-|
A|--2-2222-5-5555-7-7777-9-9-9--2-2222-5-5555-7-7777-9-9999--|----|
E|*-2-2222-3-3333-5-5555-7-7-7--2-2222-3-3333-5-5555-7-7777-*|----|
B|--0-0000----------------------0-0000-----------------------|----|

Verse 2 (CLean)
    v v^v^ v v^v^ v v^v^ v v^v^ v v^v^ v v^v^ v v^v^ v v^v^
e|-----------------------------------------------------------|----|
B|*---------------------------------------------------------*|----|
G|-----------------------------------------------------------|----|
D|------------------------------7-7777-7-7777-5-5555-5-5555--|-X5-|
A|--2-2222-2-2222-5-5555-5-5555-7-7777-7-7777-5-5555-5-5555--|----|
E|*-2-2222-2-2222-5-5555-5-5555-5-5555-5-5555-3-3333-3-3333-*|----|
B|--0-0000-0-0000-3-3333-3-3333------------------------------|----|

Chorus (w/Heavy Distortion)
    v v^v^ v v^v^ v v^v^ v v v  v v^v^ v v^v^ v v^v^ v v^v^
e|-----------------------------------------------------------|----|
B|*---------------------------------------------------------*|----|
G|-----------------------------------------------------------|----|
D|---------5-5555-7-7777-9-9-9---------5-5555-7-7777-9-9999--|-X4-|
A|--2-2222-5-5555-7-7777-9-9-9--2-2222-5-5555-7-7777-9-9999--|----|
E|*-2-2222-3-3333-5-5555-7-7-7--2-2222-3-3333-5-5555-7-7777-*|----|
B|--0-0000----------------------0-0000-----------------------|----|

Verse 3 (CLean)
    v v^v^ v v^v^ v v^v^ v v^v^ v v^v^ v v^v^ v v^v^ v v^v^
e|-----------------------------------------------------------|----|
B|*---------------------------------------------------------*|----|
G|-----------------------------------------------------------|----|
D|------------------------------7-7777-7-7777-5-5555-5-5555--|-X5-|
A|--2-2222-2-2222-5-5555-5-5555-7-7777-7-7777-5-5555-5-5555--|----|
E|*-2-2222-2-2222-5-5555-5-5555-5-5555-5-5555-3-3333-3-3333-*|----|
B|--0-0000-0-0000-3-3333-3-3333------------------------------|----|

Chorus (w/Heavy Distortion)
    v v^v^ v v^v^ v v^v^ v v v  v v^v^ v v^v^ v v^v^ v v^v^
e|-----------------------------------------------------------|----|
B|*---------------------------------------------------------*|----|
G|-----------------------------------------------------------|----|
D|---------5-5555-7-7777-9-9-9---------5-5555-7-7777-9-9999--|-X5-|
A|--2-2222-5-5555-7-7777-9-9-9--2-2222-5-5555-7-7777-9-9999--|----|
E|*-2-2222-3-3333-5-5555-7-7-7--2-2222-3-3333-5-5555-7-7777-*|----|
B|--0-0000----------------------0-0000-----------------------|----|

Outro (w/Phaser)
     v^v^   v^v^   v^v^
e|---xxxx---xxxx---xxxx-------------|
B|---xxxx---xxxx---xxxx-------------|
G|---xxxx---xxxx---xxxx-------------|
D|---xxxx---xxxx---xxxx-------------|
A|---xxxx---xxxx---xxxx-------------|
E|---xxxx---xxxx---xxxx-------------|
B|-0-xxxx-0-xxxx-0-xxxx-0-----------|

If you have any questions please feel free to e-mail me at:
sheasitz@yahoo.com
Tap to rate this tab
 
# A B C D E F G H I J K L M N O P Q R S T U V W X Y Z