Song name
# A B C D E F G H I J K L M N O P Q R S T U V W X Y Z

Misc Unsigned Bands - Our Last Night - Tear Her I Will Be Revenged tab

Help us improve GuitareTab! Take a short survey!
http://www.purevolume.com/ourlastnight
they dont have an official page, but they release official records and they are a real 
please do not reboot the tab
-------------------------------------------------------------------------------
	     TEAR HER: I WILL BE REVENGED - Our Last Night
-------------------------------------------------------------------------------


Tabbed by: Ignacio "Coco" Vespoli
Email: cocofuhgawz@hotmail.com


Guitar Tuning: E A D G B e

INTRO

Guitar 1
e|-------------------------------|-------------------------------------------|
B|-------------------------------|-------------------------------------------|
G|-----0---------0---0--------0--|----0---------0---0-------0----------------|
D|-------4-----4-------4----4----|------4-----4-------4---4------------------|
A|-----------5------------5------|----------5-----------5--------------------|
E|--0------0-------0-------------|--0-----0-------0--------------------------|
                                                                             |
Guitar 2                                                                     |
e|---------------------------------------------------------------------------|
B|---------------------------------------------------------------------------|
G|---------------------------------------------------------------------------|
D|---------------------------------------------------------------------------|
A|---------------------------------------------------------------------------|
E|---------------------------------------------------------------------------|


Guitar 1
e|--------------------------------|------------------------------------------|
B|----------3--------------3------|----------3--------------3----------------|
G|------0-----0--------0-----0----|------0-----0--------0-----0--------------|
D|----5---5-----5----5---5-----5--|----5---5-----5----5---5-----5------------|
A|--3--------------3--------------|--5--------------2------------------------|
E|--------------------------------|------------------------------------------|
                                                                             |
Guitar 2                                                                     |
e|--------------------------------|------------------------------------------|
B|----------3--------------3------|----------3--------------3----------------|
G|------0-----0--------0-----0----|------0-----0--------0-----0--------------|
D|----5---5-----5----5---5-----5--|----5---5-----5----5---5-----5------------|
A|--3--------------3--------------|--5--------------2------------------------|
E|--------------------------------|------------------------------------------|


Guitar 1
e|-------------------------------|-------------------------------------------|
B|-------------------------------|-------------------------------------------|
G|-----0---------0---0--------0--|----0---------0---0-------0----------------|
D|-------4-----4-------4----4----|------4-----4-------4---4------------------|
A|-----------5------------5------|----------5-----------5--------------------|
E|--0------0-------0-------------|--0-----0-------0--------------------------|
                                                                             |
Guitar 2                                                                     |
e|-------------------------------|-------------------------------------------|
B|-------------------------------|-------------------------------------------|
G|-----0---------0---0--------0--|----0---------0---0-------0----------------|
D|-------4-----4-------4----4----|------4-----4-------4---4------------------|
A|-----------5------------5------|----------5-----------5--------------------|
E|--0------0-------0-------------|--0-----0-------0--------------------------|


Guitar 1
e|--------------------------------|------------------------------------------|
B|----------3--------------3------|----------3--------------3----------------|
G|------0-----0--------0-----0----|------0-----0--------0-----0--------------|
D|----5---5-----5----5---5-----5--|----5---5-----5----5---5-----5------------|
A|--3--------------3--------------|--5--------------2------------------------|
E|--------------------------------|------------------------------------------|
                                                                             |
Guitar 2                                                                     |
e|--------------------------------|------------------------------------------|
B|----------3--------------3------|----------3--------------3----------------|
G|------0-----0--------0-----0----|------0-----0--------0-----0--------------|
D|----5---5-----5----5---5-----5--|----5---5-----5----5---5-----5------------|
A|--3--------------3--------------|--5--------------2------------------------|
E|--------------------------------|------------------------------------------|



***BASS FILL***



BRIDGE

Guitar 1
e|-----------------------------------------|
B|-----------------------------------------|
G|------------------5-------7-7-7-7-7-7-7--|
D|--2---------------5-------7-7-7-7-7-7-7--|
A|--2---------------3-------5-5-5-5-5-5-5--|
E|--0--------------------------------------|
                                           |
Guitar 2                                   |
e|-----------------------------------------|
B|-----------------------------------------|
G|------------------5-------7-7-7-7-7-7-7--|
D|--2---------------5-------7-7-7-7-7-7-7--|
A|--2---------------3-------5-5-5-5-5-5-5--|
E|--0--------------------------------------|

Guitar 1
e||-------------------------------||
B||-------------------------------||
G||o--------12-12-11/12-9-9-9----o||
D||o--2--2---x--x--x--x-x-x-x----o||
A||---2--2--10-10--9/10-7-7-7-----||
E||---0--0------------------------||
                                   |
Guitar 2                           |
e||-------------------------------||
B||-------------------------------||
G||o--------12-12-11/12-9-9-9----o||
D||o--2--2---x--x--x--x-x-x-x----o||
A||---2--2--10-10--9/10-7-7-7-----||
E||---0--0------------------------||

Guitar 1
e|------------------------------------------------------------------------||
B|------------------------------------------------------------------------||
G|o--5-5-5----4--4----5-5-5----4--4-----2-2---------------------7--------o||
D|o--5-5-5----4--4----5-5-5----4--4-----2-2---5---4---5---5-4-5---5-4-5--o||
A|---3-3-3----2--2----3-3-3----2--2-----0-0---5---4---5-------------------||
E|--------------------------------------------3---2---3-------------------||
                                                                           |
Guitar 2                                                                   |
e|------------------------------------------------------------------------||
B|------------------------------------------------------------------------||
G|o---------16-16-16---------16-16-16--14-14--12--11--12-----------------o||
D|o----------x--x--x----------x--x--x---x--x---x---x---x-----------------o||
A|----------14-14-14---------14-14-14--12-12--10---9--10------------------||
E|------------------------------------------------------------------------||

Guitar 1
e||-------------------------------||
B||-------------------------------||
G||o--------12-12-11/12-9-9-9----o||
D||o--2--2---x--x--x--x-x-x-x----o||
A||---2--2--10-10--9/10-7-7-7-----||
E||---0--0------------------------||
                                   |
Guitar 2                           |
e||-------------------------------||
B||-------------------------------||
G||o--------12-12-11/12-9-9-9----o||
D||o--2--2---x--x--x--x-x-x-x----o||
A||---2--2--10-10--9/10-7-7-7-----||
E||---0--0------------------------||

Guitar 1
e|------------------------------------------------------------------------||
B|------------------------------------------------------------------------||
G|o--5-5-5----4--4----5-5-5----4--4-----2-2---------------------7--------o||
D|o--5-5-5----4--4----5-5-5----4--4-----2-2---5---4---5---5-4-5---5-4-5--o||
A|---3-3-3----2--2----3-3-3----2--2-----0-0---5---4---5-------------------||
E|--------------------------------------------3---2---3-------------------||
                                                                           |
Guitar 2                                                                   |
e|------------------------------------------------------------------------||
B|------------------------------------------------------------------------||
G|o---------16-16-16---------16-16-16--14-14--12--11--12-----------------o||
D|o----------x--x--x----------x--x--x---x--x---x---x---x-----------------o||
A|----------14-14-14---------14-14-14--12-12--10---9--10------------------||
E|------------------------------------------------------------------------||

VERSE

Guitar 1
e|------------------------------------------------------------------------------|
B|------------------------------------------------------------------------------|
G|----------9---9----------9---9----------5---5---------------------------------|
D|----------9---9----------9---9----------5---5--5-5-5-5-5-5-5-5-7-7-7-7-7-7-7--|
A|----------7---7----------7---7----------3---3--3-3-3-3-3-3-3-3-5-5-5-5-5-5-5--|
E|--0-0-0-0---0----0-0-0-0---0----0-0-0-0---0-----------------------------------|
                                                                                |
Guitar 2                                                                        |
e|------------------------------------------------------------------------------|
B|------------------------------------------------------------------------------|
G|----------9---9----------9---9----------5---5---------------------------------|
D|----------9---9----------9---9----------5---5--5-5-5-5-5-5-5-5-7-7-7-7-7-7-7--|
A|----------7---7----------7---7----------3---3--3-3-3-3-3-3-3-3-5-5-5-5-5-5-5--|
E|--0-0-0-0---0----0-0-0-0---0----0-0-0-0---0-----------------------------------|

Guitar 1
e|--------------------------10--------------------------------------------------|
B|-----------------8--7--8------8--7--8------------------8--7--8--10--8--7--8---|
G|----------9---9---------------------------------9---9-------------------------|
D|----------9---9---------------------------------9---9-------------------------|
A|----------7---7---------------------------------7---7-------------------------|
E|--0-0-0-0---0---------------------------0-0-0-0---0---------------------------|
                                                                                |
Guitar 2                                                                        |
e|--------------------------14-------------------------------------8------------|
B|-----------------12-10-12-----12-10-12-----------------12-10-12-----12-10-12--|
G|----------9---9---------------------------------9---9-------------------------|
D|----------9---9---------------------------------9---9-------------------------|
A|----------7---7---------------------------------7---7-------------------------|
E|--0-0-0-0---0---------------------------0-0-0-0---0---------------------------|

Guitar 1
e|---------------------------------------------------------------------------|
B|---------------------------------------------------------------------------|
G|----------5---5------------------------------------------------------------|
D|----------5---5--5-5-5-5-5-5-5/7-7-7-7x--7x---7x---7x---7x---7x------------|
A|----------3---3--3-3-3-3-3-3-3/5-5-5-5x--5x---5x---5x---5x---5x------------|
E|--0-0-0-0---0--------------------------------------------------------------|
                                                                             |
Guitar 2                                                                     |
e|-----------------------------------------------------------------------------|
B|----------------------------------------------12-12-12-12-12-12--------------|
G|----------5---5--------------------------------------------------------------|
D|----------5---5--------------------------------------------------------------|
A|----------3---3--------------------------------------------------------------|
E|--0-0-0-0---0----------------------------------------------------------------|

Guitar 1
e||---------------------------||-||---------------------------||
B||---------------------------||-||---------------------------||
G||o------9-7---9---9-7-9----o||-||o-------------------------o||
D||o------9-7---9---9-7-9----o||-||o------9-7---9---9-7-9----o||
A||-------7-5---7---7-5-7-----||-||---------------------------||
E||---0-0-----0---0-----------||-||---0-0-----0---0-----------||
                                                               |
Guitar 2                                                       |
e||---------------------------||-||---------------------------||
B||---------------------------||-||---------------------------||
G||o------9-7---9---9-7-9----o||-||o-------------------------o||
D||o------9-7---9---9-7-9----o||-||o------9-7---9---9-7-9----o||
A||-------7-5---7---7-5-7-----||-||---------------------------||
E||---0-0-----0---0-----------||-||---0-0-----0---0-----------||

FILL

Guitar 1
e|-------------|
B|-------------|
G|-------------|
D|--5...-4...--|
A|--5...-4...--|
E|--3...-2...--|
               |
Guitar 2       |
e|-------------|
B|-------------|
G|-------------|
D|--5555-4444--|
A|--5555-4444--|
E|--3333-2222--|
    P.M........

CHORUS

Guitar 1
e|-----|------|-----|-----|------------------------|
B|-----|------|-----|-----|------------------------|
G|-----|------|-----|-----|------Improvisar en-----|
D|--7--|--10--|--5--|--4--|--------Am dorico-------|
A|--7--|--10--|--5--|--4--|------------------------|
E|--5--|---8--|--3--|--2--|------------------------|
                                                   |
Guitar 2                                           |
e|-----|------|-----|-----|-----|------|-----|-----|
B|-----|------|-----|-----|-----|------|-----|-----|
G|-----|------|-----|-----|-----|------|-----|-----|
D|--7--|--10--|--5--|--4--|--7--|--10--|--5--|--4--|
A|--7--|--10--|--5--|--4--|--7--|--10--|--5--|--4--|
E|--5--|---8--|--3--|--2--|--5--|---8--|--3--|--2--|

BRIDGE 2

Guitar 1
e|-----------------------------------------------------------|
B|-----------------------------------------------------------|
G|-----------------------------------------------------------|
D|-----------------------------------------------------------|
A|-----------------------------------------------------------|
E|-----------------------------------------------------------|
                                                             |
Guitar 2                                                     |
e|-----------------------------------------------------------|
B|----6-6----7-7----6-6----7-7-7-6-6----7-7----6-6----7-7----|
G|----5-5----7-7----5-5----7-7-7-5-5----7-7----5-5----7-7----|
D|--x-7-7--x-7-7--x-7-7--x-7-7-7-7-7--x-7-7--x-7-7--x-7-7----|
A|--x-5-5--x-5-5--x-5-5--x-5-5-5-5-5--x-5-5--x-5-5--x-5-5----|
E|-----------------------------------------------------------|


Guitar 1
e||---------------------||-||---------------------------||
B||---------------------||-||---------------------------||
G||o----9-9-9---7-7-7--o||-||o----12-12-12---11-11-11--o||
D||o--x-x-x-x-x-x-x-x--o||-||o--x--x--x--x-x--x--x--x--o||
A||---x-7-7-7-x-5-5-5---||-||---x-10-10-10-x--9--9--9---||
E||---------------------||-||---------------------------||
                                                         |
Guitar 2                                                 |
e||---------------------||-||---------------------------||
B||-----6-6-6---7-7-7---||-||---------------------------||
G||o----5-5-5---7-7-7--o||-||o----12-12-12---12-12-12--o||
D||o--x-7-7-7-x-7-7-7--o||-||o--x-12-12-12-x-12-12-12--o||
A||---x-5-5-5-x-5-5-5---||-||---x-10-10-10-x--9--9--9---||
E||---------------------||-||---------------------------||

Guitar 1
e||---------------------||-||---------------------------||-----------------|
B||---------------------||-||---------------------------||-----------------|
G||o----9-9-9---7-7-7--o||-||o----12-12-12---11-11-11--o||--11-11-11-11----|
D||o--x-x-x-x-x-x-x-x--o||-||o--x--x--x--x-x--x--x--x--o||---x--x--x--x----|
A||---x-7-7-7-x-5-5-5---||-||---x-10-10-10-x--9--9--9---||---9--9--9--9----|
E||---------------------||-||---------------------------||-----------------|
                                                                           |
Guitar 2                                                                   |
e||---------------------||-||---------------------------||-----------------|
B||-----6-6-6---7-7-7---||-||---------------------------||-----------------|
G||o----5-5-5---7-7-7--o||-||o----12-12-12---12-12-12--o||--12-12-12-12----|
D||o--x-7-7-7-x-7-7-7--o||-||o--x-12-12-12-x-12-12-12--o||--12-12-12-12----|
A||---x-5-5-5-x-5-5-5---||-||---x-10-10-10-x--9--9--9---||---9--9--9--9----|
E||---------------------||-||---------------------------||-----------------|

FILL

Guitar 1
e|-------------|
B|-------------|
G|-------------|
D|--5...-4...--|
A|--5...-4...--|
E|--3...-2...--|
               |
Guitar 2       |
e|-------------|
B|-------------|
G|-------------|
D|--5555-4444--|
A|--5555-4444--|
E|--3333-2222--|
    P.M........

CHORUS

Guitar 1
e|-----|------|-----|-----|------------------------|
B|-----|------|-----|-----|------------------------|
G|-----|------|-----|-----|------Improvisar en-----|
D|--7--|--10--|--5--|--4--|--------Am dorico-------|
A|--7--|--10--|--5--|--4--|------------------------|
E|--5--|---8--|--3--|--2--|------------------------|
                                                   |
Guitar 2                                           |
e|-----|------|-----|-----|-----|------|-----|-----|
B|-----|------|-----|-----|-----|------|-----|-----|
G|-----|------|-----|-----|-----|------|-----|-----|
D|--7--|--10--|--5--|--4--|--7--|--10--|--5--|--4--|
A|--7--|--10--|--5--|--4--|--7--|--10--|--5--|--4--|
E|--5--|---8--|--3--|--2--|--5--|---8--|--3--|--2--|

BRIDGE 3

Guitar 1
e|--------------------------------|------------------------------------------------|
B|--------------------------------|------------------------------------------------|
G|--------------------------------|------------------------------------------------|
D|--------------------------------|--x-x-5-5-x-x-5-x-5-x-5--x-x-7-7-x-x-7-x-7-x-7--|
A|--------------------------------|--x-x-3-3-x-x-3-x-3-x-3--x-x-5-5-x-x-5-x-5-x-5--|
E|--------------------------------|------------------------------------------------|
                                                                                   |
Guitar 2                                                                           |
e|--------------------------------|------------------------------------------------|
B|--------------------------------|------------------------------------------------|
G|--------------------------------|------------------------------------------------|
D|----------5*-------------5*-----|--x-x-5-5-x-x-5-x-5-x-5--x-x-7-7-x-x-7-x-7-x-7--|
A|--3-3-3-3----3-3-3-3-3-3----5*--|--x-x-3-3-x-x-3-x-3-x-3--x-x-5-5-x-x-5-x-5-x-5--|
E|--------------------------------|------------------------------------------------|
   P.M...........................

Guitar 1
e||---------------------------------------------------||-------------------------------------------|
B||---------------------------------------------------||-------------------------------------------|
G||o--9-9-9-9-9-9-9-9--------------------------------o||-------------------------------------------|
D||o--x-x-x-x-x-x-x-x--------------------------------o||--x-x-5-5-x-x-5-x-5-x-5--x-x-7-7-77777777--|
A||---7-7-7-7-7-7-7-7---------------------------------||--x-x-3-3-x-x-3-x-3-x-3--x-x-5-5-55555555--|
E||---------------------------------------------------||-------------------------------------------|
   											 P.M.....  |
Guitar 2                                                                               		   |
e||---------------------------------------------------||-------------------------------------------|
B||---------------------------------------------------||-------------------------------------------|
G||o-------------------------------------------------o||-------------------------------------------|
D||o----------------5*------------------------5*-----o||--x-x-5-5-x-x-5-x-5-x-5--x-x-7-7-77777777--|
A||---3---3---3---3----3---3---3---3---3---3-----5*---||--x-x-3-3-x-x-3-x-3-x-3--x-x-5-5-55555555--|
E||---------------------------------------------------||-------------------------------------------|
   P.M...........................                                                        P.M.....


VERSE 2

Guitar 1
e||---------------------------------------------------------------------------------------------------||
B||--------------8--7-----------------8---7---8---10-----------------8--------------------------------||
G||o-------------------7-------------------------------5-5---5-5----------5-5---5-5------------------o||
D||o--2-2---2-2------------2-2---2-2-------------------5-5---5-5----------5-5---5-5------------------o||
A||---2-2---2-2------------2-2---2-2-------------------3-3---3-3----------3-3---3-3-------------------||
E||---0-0---0-0------------0-0---0-0------------------------------------------------------------------||
                                                                                                       |
Guitar 2                                                                                               |
e||------------------------------------------------8--------------------------------------------------||
B||-------------12-10----------------12--10--12----------------------12-------------------------------||
G||o-------------------11------------------------------5-5---5-5----------5-5---5-5--x-x-7-7-7-------o||
D||o--2-2---2-2------------2-2---2-2-------------------5-5---5-5----------5-5---5-5--x-x-7-7-7-2...--o||
A||---2-2---2-2------------2-2---2-2-------------------3-3---3-3----------3-3---3-3--x-x-5-5-5-2...---||
E||---0-0---0-0------------0-0---0-0-----------------------------------------------------------0...---||

OUTRO

Guitar 1
e|---------------------------------------------------------------|
B|---------------------------------------------------------------|
G|--------------------Improvisar en Am Dórico--------------------|
D|---------------------------------------------------------------|
A|---------------------------------------------------------------|
E|---------------------------------------------------------------|
                                                                 |
Guitar 2                                                         |
e|-----------------------------------------------------------------|
B|-----------------------------------------------------------------|
G|-----------------------------------------------------------------|
D|-----2...--10...--2...--10...--2...--10...--2...--10...--2...----|
A|-x--2...--10...--2...--10...--2...--10...--2...--10...--2...-----|
E|-x--0...---8...--0...---8...--0...---8...--0...---8...--0...-----|


b.u. bending up
b.d. bending down
r.b. release bend
tr.  tremolo
.    staccato
/    slide up
    slide down
h    hammer-on
p    pull-off
x    mute note
~    vibrato
+    harmonic
*    artificial harmonic
...  let ring
===============================================================================
Related for Our Last Night - Tear Her I Will Be Revenged tab