Guitaretab - guitar tabs
Song name
# A B C D E F G H I J K L M N O P Q R S T U V W X Y Z

Misc Unsigned Bands - Boy Elroy - A Better Place tab

tabbed by:Chito Borja
email: maurel_borja@yahoo.com
legend:
     ` - palm mute
     ~ - let ring
     h - hammer down
     p - pull-off

BOY ELROY - A Better Place


INTRO:
guitar 2
e|----------------------------------------------------|
b|----------------------------------------10~-11~-----|
g|-----------9h11--11-11p9-13p9~--------9-------------|
d|-9-9-9h11~---------------------9-9h11---------------|
a|----------------------------------------------------|
E|----------------------------------------------------|

e|----------------------------------------------------|
b|----------------------------------------------------|
g|-----------9h11--11-11p9-13p9~--------9--11~-9~-----|
d|-9-9-9h11~---------------------9-9h11---------------|
a|----------------------------------------------------|
E|----------------------------------------------------|

INTRO:
guitar 1
e|----------------------------------------------------|
b|----------------------------------------------------|
g|----------4-4-4-4--6-6-6-6--2~-4~-------------------|
d|-2-2-2-2--4-4-4-4--6-6-6-6--2~-4~-------------------|
a|-2-2-2-2--2-2-2-2--4-4-4-4--0~-2~-------------------|
E|-0-0-0-0--------------------------------------------|
(x2)


guitar 2
e|----------------------------------------------------|
b|----------------------------------------10~-11~-----|
g|-----------9h11--11-11p9-13p9~--------9-------------|
d|-9-9-9h11~---------------------9-9h11---------------|
a|----------------------------------------------------|
E|----------------------------------------------------|

e|----------------------------------------------------|
b|----------------------------------------------------|
g|-----------9h11--11-11p9-13p9~--------9-11~-9~------|
d|-9-9-9h11~---------------------9-9h11---------------|
a|----------------------------------------------------|
E|----------------------------------------------------|


VERSE (and INTERLUDE):
(E, B, C#, B with upward strumming or this way...)
guitar 1
[ Tab from: http://www.guitaretab.com/m/misc-unsigned-bands/72720.html ]
e|----------------------------------------------------|
b|----------------------------------------------------|
g|-9--9-9--9---8--8-8--8-------------------8--8-8--8--|
d|-9--9-9--9---9--9-9--9---11--11-11--11---9--9-9--9--|
a|-7--7-7--7---9--9-9--9---11--11-11--11---9--9-9--9--|
E|--------------------------9---9--9---9--------------|
(x2)

guitar 2
e|----------------------------------------------------|
b|----------------------------------------------------|
g|-9~~~~~~~~~~~~~~~~~~~~~~~~~~~~~~~~~~~~~~~~~~~~~~~~--|
d|-x~~~~~~~~~~~~~~~~~~~~~~~~~~~~~~~~~~~~~~~~~~~~~~~~--|
a|-7~~~~~~~~~~~~~~~~~~~~~~~~~~~~~~~~~~~~~~~~~~~~~~~~--|
E|----------------------------------------------------|
(x2)


PRE-CHORUS(and BRIDGE):
guitar 1 and 2
e|----------------------------------------------------|
b|----------------------------------------------------|
g|----------------------------------------------------|
d|-6--7--7-7-7-7-7-7-7-7--11--9--9-9-9-9-9-9-9-9------|
a|-6--7--7-7-7-7-7-7-7-7--11--9--9-9-9-9-9-9-9-9------|
E|-4--5--5-5-5-5-5-5-5-5---9--7--7-7-7-7-7-7-7-7------|
         ` ` ` ` ` ` ` `         ` ` ` ` ` ` ` `

OUTRO-CHORUS:
guitar 1
same as chorus

guitar 2 (bass down intro riff or like this...)

e|----------------------------------------------------|
b|----------------------------------------------------|
g|----------------------------------------------------|
d|------------------------------------7~-6~-----------|
a|---------7h9~--9-9p7-11p7~--------7-----------------|
E|-7-7-7h9--------------------7-7h9-------------------|

e|----------------------------------------------------|
b|----------------------------------------------------|
g|----------------------------------------------------|
d|----------------------------------------------------|
a|---------7h9~--9-9p7-11p7~--------7-9~-7~-----------|
E|-7-7-7h9--------------------7-7h9-------------------|

end!

just listen the song first, and you'll get the hang of it...
the song is melodic, and will easily get into your ear nerves!

don't forget to rate my tab and support indie bands, especially Indie-Punk bands!! Boy 
Rocks! Thanks!!!

- chito
Related for Boy Elroy - A Better Place tab
Boy Elroy - A Better Place chords by Misc Unsigned Bands