Guitaretab - guitar tabs
Song name
# A B C D E F G H I J K L M N O P Q R S T U V W X Y Z

Misc Unsigned Bands - Sweet Affair - Lets Just Be Friends tab

-------------------------------------------------------------------------------
			     SWEET AFFAIR - LETS JUST BE FRIENDS
-------------------------------------------------------------------------------
Tabbed by: Eidur + Pug
Email: eidur22_liam@hotmail.com

Tuning: Standard

GUITAR 1 - Mikie Daniel

INTRO

e|-----------------|
B|-----------------|
G|------------999--|    x3
D|-999-77-999-999--|
A|-999-77-999-777--|
E|-777-55-777------|

VERSE

e|---------------------------------------------------------------|
B|---------------------------------------------------------------|
G|---------------------------------------------------------------|    x1
D|-1212121212121212-1414141414141414-12121212-14141414-99999999--|
A|-1212121212121212-1414141414141414-12121212-14141414-99999999--|
E|-1010101010101010-1212121212121212-10101010-12121212-77777777--|

CHORUS

e|---------------------------------------|
B|---------------------------------------|
G|---------------------------------------|   x3 
D|-99999999-55555555-77777777-44444444---|   (On third time end on 5th fret)
A|-99999999-55555555-77777777-44444444---|
E|-77777777-33333333-55555555-22222222---|

SOLO 1

e|-------------------------------------------------------|
B|-------------------------------------------------------|
G|---fb9------------9-------9-7----9-7----9-7----9-7-----|
D|-------------------------------------------------------|
A|-------------------------------------------------------|
E|-------------------------------------------------------|

e|----------------------------------------------------------|
B|----------------------------------------------------------|
G|--fb9-9-9-9-9-9-9-9-9-9-9-9-9-9-9-9-9-9-9-9-9-9-9-9-9-----|
D|----------------------------------------------------------|
A|----------------------------------------------------------|
E|----------------------------------------------------------|


GUITAR 2 - Rich Juggins (Pug)

INTRO

e|------------------|
B|------------------|
G|------------------|   x3
D|------------------|
A|------------777---|
E|-777-55-777-------|

VERSE

e|----------------------------------------------------------------|
B|----------------------------------------------------------------|
G|----------------------------------------------------------------|   x1
D|----------------------------------------------------------------|
A|----------------------------------------------------------------|
E|-1010101010101010-1212121212121212-10101010-12121212-77777777---|

CHORUS
[ Tab from: http://www.guitaretab.com/m/misc-unsigned-bands/72729.html ]
e|---------------------------------------|
B|---------------------------------------|
G|---------------------------------------|
D|---------------------------------------|
A|---------------------------------------|
E|-77777777-33333333-55555555-22222222---|

INTERLUDE

e|-----------|
B|-----------|
G|---9-------|   x3
D|-9-9-7-9---|
A|-9-7-7-9---|
E|-7---5-7---|

SOLO 2 - Wah Wah Pedal

e|-----------------------------------------------|
B|-----------------------------------------------|
G|----------7h9---hb9hb9--9-9-9-9-7h9-7h9-7h9---|
D|-7h9-------------------------------------------|
A|-----------------------------------------------|
E|-----------------------------------------------|

e|-----------------------------------------------|
B|-----------------hb10-7-7-10-7-10-7------------|
G|-7h9p7h9p7--------------------------9p7-9~~~---|
D|-----------------------------------------------|
A|-----------------------------------------------|
E------------------------------------------------|

e|-------7-10---7-10---7-10/fb12-12-12---12-12-12-12---|
B|---10------------------------------------------------|
G|-----------------------------------------------------|
D|-----------------------------------------------------|
A|-----------------------------------------------------|
E|-----------------------------------------------------|

e|----12-10h12-10h12-10h12-10-------------------------------|
B|--------------------------------12p10h12p10---------------|
G|----------------------------------------------------------|
D|----------------------------------------------------------|
A|----------------------------------------------------------|
E|----------------------------------------------------------|

e|----12-10h12-10h12-10h12-10-------------------------------|
B|--------------------------------12p10h12p10---------------|
G|----------------------------------------------------------|
D|----------------------------------------------------------|
A|----------------------------------------------------------|
E|----------------------------------------------------------|

e|----12-10h12-10h12fb12---12-10h12-10---------------------|
B|---------------------------------------------12p10h12~~~~-|
G|----------------------------------------------------------|
D|----------------------------------------------------------|
A|----------------------------------------------------------|
E|----------------------------------------------------------|


ORDER

Intro
Verse
Intro
Verse
Chorus
Intro
Verse
Chorus
Intro
Verse
Interlude + Solo 1
Intro + Solo 2
Verse

| /  slide up
| \  slide down
| h  hammer-on
| p  pull-off
| ~  vibrato
| +  harmonic
| x  Mute note
| fb full bend  
===============================================================================
Related for Sweet Affair - Lets Just Be Friends tab