Song name
# A B C D E F G H I J K L M N O P Q R S T U V W X Y Z

Misc Unsigned Bands - One Day Behind - Picture Perfect tab

INTRO
E----------------|
A----------------|
D----------------|
G----------------|
B--3-------------|
E-3--------------|

then it kicks in with the whole band, the main guitar is basically repeating a G chord then a Cadd9

VERSE
E-3-3-3--0-0-0-|
A-2-2-2--3-3-3-|
D-0-0-0--2-2-2-|
G-0-0-0--0-0-0-|
B-0-0-0--3-3-3-|
E-3-3-3--3-3-3-|


Verse 4x

BRIDGE 4x
it goes G, Em7, D, Cadd9; hold chords half as fast as verse
E-3-3-0-0-0-0-0-0-|
A-2-2-2-2-0-0-3-3-|
D-0-0-2-2-0-0-2-2-|
G-0-0-0-0-2-2-0-0-|
B-0-0-3-3-3-3-3-3-|
E-3-3-3-3-2-2-3-3-|

PRECHORUS

Em7 5 downstrokes, D 5 downstrokes
E-0-0-0-0-0--0-0-0-0-0-|
A-2-2-2-2-2--0-0-0-0-0-|
D-2-2-2-2-2--0-0-0-0-0-|
G-0-0-0-0-0--2-2-2-2-2-|
B-3-3-3-3-3--3-3-3-3-3-|
E-3-3-3-3-3--2-2-2-2-2-|

CHORUS
"I'll make you mine"

E-0-0-3-3-0-0-|
A-3-3-2-2-0-0-|
D-2-2-0-0-0-0-|
G-0-0-0-0-2-2-|
B-3-3-0-0-3-3-|
E-3-3-3-3-2-2-|

then the second part, when he says "say goodbye", with a A7sus4 and then Cadd9
E-0-0-0-0-|
A-0-0-3-3-|
D-2-2-2-2-|
G-0-0-0-0-|
B-3-3-3-3-|
E-3-3-3-3-|

"should I have shown..."

E----------------------|
A-2--3slide--10---9----|
D--0--2--------9---0---|
G---0--0---------------|
B---------------10--10-|
E----------------------|

then it goes into a prechorus and a chorus again, and then ends with

E------------|
A-10-10-10-9-|
D-9--9--9--0-|
G------------|
B------------|
E------------|

www.myspace.com/onedaybehind
Tap to rate this tab
# A B C D E F G H I J K L M N O P Q R S T U V W X Y Z