Song name
# A B C D E F G H I J K L M N O P Q R S T U V W X Y Z

Misc Unsigned Bands - Muerte - Dearly Departed tab

Muerte- Dearly Departed
Go to www.myspace.com/muertemusic to listen to this and other Muerte songs. They are a 
ass Hardcore/Metal band from Washington. Enjoy.

INTRODUCTION:
                  Main Riff                  Ending 1
/ |-0-0-000-0-0-000-0-0-000-0-0-000-|-0-0-000-0-0-000-0-0-000-0-0-000---|
|0|-6-6-666-6-6-666-6-6-666-6-6-666-|-6-6-666-6-6-666-6-6-666-6-6-666---|
| |-7-7-777-7-7-777-7-7-777-7-7-777-|-7-7-777-7-7-777-7-7-777-7-7-777---|
| |-0-0-000-0-0-000-0-0-000-0-0-000-|-8-8-888-8-8-888-8-8-888-8-8-888---|
|0|---------------------------------|-----------------------------------|
 |---------------------------------|------------------------------------|

        Ending 2        X2
|-0000000000000000-00000-----------|
|-6666666666666666-66666-|0--------|      Pause
|-7777777777777777-55555-|---------|
|-8888888888888888-00000-|---------|
|------------------------|0--------|
|----------------------------------| /


VERSE:
Repeat the entire riff 4 Times

HARD PART:
                  X8
/ |--------------------|
|0|----------------|0--|
| |-10-9--12-14-15-|---|
| |-0--0--0--0--0--|---|
|0|-0--0--0--0--0--|0--|
 |-0--0--0--0--0-------| /
Tap to rate this tab
 
# A B C D E F G H I J K L M N O P Q R S T U V W X Y Z