Guitaretab - guitar tabs
Song name
# A B C D E F G H I J K L M N O P Q R S T U V W X Y Z

Misc Unsigned Bands - Aggressive Audio - Senior Citizen tab

Senior Citizen by: Aggressive Audio

Tabbed by: Celluloid_LapuLapu

Tuning: EADGBe

Intro: 1st Part

e|------8--------------7---------------5--------------7---------------------|
B|----8---8---8------8---8---8-------6---6---6------8---8---8---------------|
G|--9-------9------7-------7-------5-------5------7-------7-----------------|
D|--------------------------------------------------------------------------|
A|--------------------------------------------------------------------------|
E|--------------------------------------------------------------------------|

2nd Part

e|------8--------------7--------------5-----------7--7-----------------------|
B|----8---8---8------8---8---8------6---6---6-----8--8-----------------------|
G|--9-------9------7-------7------5-------5---5---7--7-----------------------|
D|---------------------------------------------------------------------------|
A|---------------------------------------------------------------------------|
E|---------------------------------------------------------------------------|

Verse: (lalalalalala..)

e|--8-8-8-8---7-7-7-7---5-5-5-5---7-7-7-7----------------------------------|
B|--8-8-8-8---8-8-8-8---6-6-6-6---8-8-8-8----------------------------------|
G|--9-9-9-9---7-7-7-7---5-5-5-5---7-7-7-7----------------------------------|
D|-------------------------------------------------------------------------|
A|-------------------------------------------------------------------------|
E|-------------------------------------------------------------------------|

After that, do this one and repeat verse (Ang akong lolo sige lag pagwapo..)

e|----8-12-10-8---------------8-10-15\8--------------------------------------|
B|-----------------------8-10------------------------------------------------|
G|--9------------8/10-12-----------------------------------------------------|
D|---------------------------------------------------------------------------|
A|---------------------------------------------------------------------------|
E|---------------------------------------------------------------------------|

For refrain, repeat 2nd part of intro and then do this one for chorus (Ang tigulang...)

e|----8-12-10-8----------8-12-10-8-------8-----------7---10-8-7-----7------|
B|--------------8-8-6----------------8-----8---8---8---8--------8-----8---8|
G|--9-----------------9----------------9-----9---7----------------7-----7--|
D|-------------------------------------------------------------------------|
A|-------------------------------------------------------------------------|
E|-------------------------------------------------------------------------|
[ Tab from: http://www.guitaretab.com/m/misc-unsigned-bands/72898.html ]
e|--------5---------------5-------------7---10-8-7-----7-------------------|
B|------6---6---6-------6---6---6-----8---8--------8-----8---8-------------|
G|--5-5-------5-----5-5-------5-----7----------------7-----7---------------|
D|-------------------------------------------------------------------------|
A|-------------------------------------------------------------------------|
E|-------------------------------------------------------------------------|

Solo:

e|-------------------------------------------------------------------------|
B|------------------------------------5-6-6-------5------------------------|
G|--0-2-4-5-5-0-0-2-2-4-5-5-2-4---5-7-------5-5-7^--7-7--------------------|
D|-------------------------------------------------------------------------|
A|-------------------------------------------------------------------------|
E|-------------------------------------------------------------------------|

e|-------------------------------------------------------------------------|
B|----------------------------------5-6-6-------5--------------------------|
G|--0-2-4-5-5-0-2-2-4-5-5-2-4---5-7-------5-5-7---7-7----------------------|
D|-------------------------------------------------------------------------|
A|-------------------------------------------------------------------------|
E|-------------------------------------------------------------------------|

e|------------------------------------------------------------8------------|
B|-------------------------------------------------------8-10---10-8-------|
G|--7-7-7-7/9-9-9-9-9-9-9-9---9-7-5-7-5-----------5-7-9^-------------9-7---|
D|--------------------------------------7-----5-7------------------------10|
A|----------------------------------------5-7------------------------------|
E|-------------------------------------------------------------------------|

e|-------------------------------------------------------------------------|
B|------8/10-10-8-8--------------------------------------------------------|
G|--7/9---------9-9\7-7/9-9-7-5-5---5-7-9-9-9-9-7-5---5-7-5h7-5-5h7--------|
D|--------------------------------------------------7---------------7------|
A|-------------------------------------------------------------------------|
E|-------------------------------------------------------------------------|

e|---------------------------------------------------------------------------|
B|---------------------------------------------------------------------------|
G|-----------5---------------------------------------------------------------|
D|---5h7---5-----------------------------------------------------------------|
A|-------7-------------------------------------------------------------------|
E|---------------------------------------------------------------------------|

This tab is 90% accurate. For comments, pls send it to jokiss17@yahoo.com
BISROCK RULES!!!!!

| / slide up
| \ slide down
| h hammer-on
| p pull-off
| ~ vibrato
| + harmonic
| x Mute note
Related for Aggressive Audio - Senior Citizen tab