Song name
# A B C D E F G H I J K L M N O P Q R S T U V W X Y Z

Misc Unsigned Bands - Silent Screams - The Death Thats Mine tab

this is a awesome song and is sort of easy to learn but once you get it you can play it 
 Also dont try to use a pick for this you will need to use your fingers

Intro x2  (clean or acoustic)
____________________
e|-----0-0------0-0|
B|-1-1-------------|
G|----------2-2----|
D|-----------------|
A|-3-3------0-0----|
E|-----0-0------0-0|
____________________

verse x4  (clean or acoustic)

___________________________
e|-0-0---0-0---0-0---0-0--|
B|-1-1---0-0---3-3---1-1--|
G|-0-0---0-0---3-3---0-0--|
D|-2-2---2-2---3-3---2-2--|
A|-3-3---2-2---0-0---2-2--|
E|-3-3---0-0---0-0---0-0--|
___________________________

chorus x2  (heavy w/ lots of distortion)

__________________________________________________________
e|-0-0-0-0-0-0---0-0-0-0-0-0---0-0-0-0-0-0---0-0-0-0-0-0-|
B|-1-1-1-1-1-1---0-0-0-0-0-0---3-3-3-3-3-3---1-1-1-1-1-1-|
G|-0-0-0-0-0-0---0-0-0-0-0-0---3-3-3-3-3-3---0-0-0-0-0-0-|
D|-2-2-2-2-2-2---2-2-2-2-2-2---3-3-3-3-3-3---2-2-2-2-2-2-|
A|-3-3-3-3-3-3---2-2-2-2-2-2---0-0-0-0-0-0---2-2-2-2-2-2-|
E|-3-3-3-3-3-3---0-0-0-0-0-0---0-0-0-0-0-0---0-0-0-0-0-0-|
__________________________________________________________
Tap to rate this tab
# A B C D E F G H I J K L M N O P Q R S T U V W X Y Z