Song name
# A B C D E F G H I J K L M N O P Q R S T U V W X Y Z

Misc Unsigned Bands - Bullets Goes Better - Past Silenced Partnersinstrumental tab

this is one of the completed song of my band and its really awesome i hope u guys vote 
it and of course you all like oh and only to remind you all were emo. (intrumental song 
only).)

Intro
|-----------------------------------------------------------------------|
|-----------------------------------------------------------------------|
|-------0-----------------0-----------------0----------------0----------|
|-----4---4-------------4---4-------------0---0------------0---0--------|
|---2-------2-(x2)----2-------2-(x2)----0-------0-(x2)---2-------2------|
|-0-----------------3-----------------2----------------0----------------|

|-----------------------------------------------------------------------|
|----------------------0-----0------------------0-----0-----------------|
|--------------------0---0-----0--------------0---0-----0---------------|
|-----0-----0------4-------4-----4----------4-------4-----4-------------|
|---0-----0------2-----------------2------2-----------------2-----------|
|-3-----2------0---------------------0--3---------------------3---------|

|-----------------------------------------------------------------------|
|---------0-----0------------------0------0-----------------------------|
|-------0---0-----0--------------0---0------0--------------0------------|
|-----0-------0-----0----------0-------0------0----------0---0----------|
|---0-----------------0------2------------------2------0-------0--------|
|-2---------------------2--0-------------------------3------------------|

|--------------------------------|
|--------------------------------|
|-------0------------------------|
|-----0---0-------------2--------|
|---0-------0-----------2--------|
|-2------------3-5-3-2--0--------|

Intro 2
|-----------------------------------------------------------------|
|-----------------------------------------------------------------|
|---------------------------------4444444-------------------------|
|-2-22222-x-5555555-x-444444------4444444-7777777-555555----------|
|-2-22222-x-5555555-x-444444------2222222-7777777-555555----------|
|-0-00000-x-3333333-x-222222-(x5)---------5555555-333333-(x5)-----|

Riff
|-------------------------------------------|
|-------------------------------------------|
|-444444-777--------------------------------|
|-444444-777-777777-555555-444444-----------|
|-222222-555-777777-555555-444444-----------|
|------------555555-333333-222222-----------|

Verse
|------------------------------------------------------------------|
|------------------------------------------------------------------|
|------------------------------------------------------------------|
|--------------------------------------------------5555------------|
|-5555-5555-5555-5-5-5-0------5555-5555-5555-5555--5555------------|
|-7777-5555-3333-2-3-5-0-(x3)-7777-5555-2222-3333--2333-(x3 & s.d)-|

 by the way (x3 & s.d) means 3 times and slowin down (S.D).

Then First intro.

Outro
|-------------------------------------------|
|-------------------------------------------|
|-------------------------------------------|
|-44444444-5555-222222----------------------|
|-22222222-2222-222222----------------------|
|-xxxxxxxx-xxxx-xxxxxx--(x3 & s.d)----------|

and after outro do this.

Am,Em,C,Em (let ring each one)
Tap to rate this tab
# A B C D E F G H I J K L M N O P Q R S T U V W X Y Z