Song name
# A B C D E F G H I J K L M N O P Q R S T U V W X Y Z

Misc Unsigned Bands - Belmont Church Road - Fustrated tab

verse 1
e-----2-2-2-2-2-2-2-2-2-2-2-2-0-0-0-0-0-0-0-0-0-0-0-0-0-0-0-|
b-----3-3-3-3-3-3-3-3-3-3-3-3-2-2-2-2-2-2-2-2-2-2-2-2-2-2-2-|
g-----2-2-2-2-2-2-2-2-2-2-2-2-2-2-2-2-2-2-2-2-2-2-2-2-2-2-2-|
d-----0-0-0-0-0-0-0-0-0-0-0-0-2-2-2-2-2-2-2-2-2-2-2-2-2-2-2-|
a-----0-0-0-0-0-0-0-0-0-0-0-0-0-0-0-0-0-0-0-0-0-0-0-0-0-0-0-|
e-----0-0-0-0-0-0-0-0-0-0-0-0-0-0-0-0-0-0-0-0-0-0-0-0-0-0-0-|

      Today I did some exams, Yeh while you sat in school.

e-----2-2-2-2-2-2-2-2-2-2-0-0-0-0-0-0-0-0-0-3-3-3-3-3-3-3-3-3-3-3-3-|
b-----3-3-3-3-3-3-3-3-3-3-2-2-2-2-2-2-2-2-2-3-3-3-3-3-3-3-3-3-3-3-3-|
g-----2-2-2-2-2-2-2-2-2-2-2-2-2-2-2-2-2-2-2-0-0-0-0-0-0-0-0-0-0-0-0-|
d-----0-0-0-0-0-0-0-0-0-0-2-2-2-2-2-2-2-2-2-0-0-0-0-0-0-0-0-0-0-0-0-|
a-----0-0-0-0-0-0-0-0-0-0-0-0-0-0-0-0-0-0-0-2-2-2-2-2-2-2-2-2-2-2-2-|
e-----0-0-0-0-0-0-0-0-0-0-0-0-0-0-0-0-0-0-0-3-3-3-3-3-3-3-3-3-3-3-3-|

      Sometimes I wonder, Are you revising? Or are you Just to cool.

pre-chorus
e-----0-0-0-0-0-0-0-0-0-0-0-0-0-0-0-0-0-0-0-0-0-0-0-0-0-0-0-0-0-0-0-0-0-|
b-----2-2-2-2-2-2-2-2-2-2-2-2-2-2-2-2-2-2-2-2-2-2-2-2-2-2-2-2-2-2-2-2-2-|
g-----2-2-2-2-2-2-2-2-2-2-2-2-2-2-2-2-2-2-2-2-2-2-2-2-2-2-2-2-2-2-2-2-2-|
d-----2-2-2-2-2-2-2-2-2-2-2-2-2-2-2-2-2-2-2-2-2-2-2-2-2-2-2-2-2-2-2-2-2-|
a-----0-0-0-0-0-0-0-0-0-0-0-0-0-0-0-0-0-0-0-0-0-0-0-0-0-0-0-0-0-0-0-0-0-|
e-----0-0-0-0-0-0-0-0-0-0-0-0-0-0-0-0-0-0-0-0-0-0-0-0-0-0-0-0-0-0-0-0-0-|

      Yeh, When Your feeling down and blue You do some maths revision,Add two plus two.

e-----0-0-0-0-0-0-0-0-0-0-0-0-3-3-3-3-3-3-3-3-3-3-3-3-0-0-0-0-0-0-2-2-|
b-----2-2-2-2-2-2-2-2-2-2-2-2-3-3-3-3-3-3-3-3-3-3-3-3-2-2-2-2-2-2-3-3-|
g-----2-2-2-2-2-2-2-2-2-2-2-2-0-0-0-0-0-0-0-0-0-0-0-0-2-2-2-2-2-2-2-2-|
d-----2-2-2-2-2-2-2-2-2-2-2-2-0-0-0-0-0-0-0-0-0-0-0-0-2-2-2-2-2-2-0-0-|
a-----0-0-0-0-0-0-0-0-0-0-0-0-2-2-2-2-2-2-2-2-2-2-2-2-0-0-0-0-0-0-0-0-|
e-----0-0-0-0-0-0-0-0-0-0-0-0-3-3-3-3-3-3-3-3-3-3-3-3-0-0-0-0-0-0-0-0-|

      You'll get your answer, But man, dont ever trust no-one but you.

e-----0-0-0-0-0-0-0-0-0-0-0-0-0-0-0-0-0-0-0-0-0-0-0-0-0-0-0-0-0-0-|
b-----2-2-2-2-2-2-2-2-2-2-2-2-2-2-2-2-2-2-2-2-2-2-2-2-2-2-2-2-2-2-|
g-----2-2-2-2-2-2-2-2-2-2-2-2-2-2-2-2-2-2-2-2-2-2-2-2-2-2-2-2-2-2-|
d-----2-2-2-2-2-2-2-2-2-2-2-2-2-2-2-2-2-2-2-2-2-2-2-2-2-2-2-2-2-2-|
a-----0-0-0-0-0-0-0-0-0-0-0-0-0-0-0-0-0-0-0-0-0-0-0-0-0-0-0-0-0-0-|
e-----0-0-0-0-0-0-0-0-0-0-0-0-0-0-0-0-0-0-0-0-0-0-0-0-0-0-0-0-0-0-|

      YEH they got me dowwwnnnn My Teacher says Your gonna drown

e-----0-0-0-0-0-0-0-0-0-0-0-0-0-0-0-0-0-0-0-0-0-0-0-0-0-0-0-0-0-0-|
g-----2-2-2-2-2-2-2-2-2-2-2-2-2-2-2-2-2-2-2-2-2-2-2-2-2-2-2-2-2-2-|
b-----2-2-2-2-2-2-2-2-2-2-2-2-2-2-2-2-2-2-2-2-2-2-2-2-2-2-2-2-2-2-|
d-----2-2-2-2-2-2-2-2-2-2-2-2-2-2-2-2-2-2-2-2-2-2-2-2-2-2-2-2-2-2-|
a-----0-0-0-0-0-0-0-0-0-0-0-0-0-0-0-0-0-0-0-0-0-0-0-0-0-0-0-0-0-0-|
e-----0-0-0-0-0-0-0-0-0-0-0-0-0-0-0-0-0-0-0-0-0-0-0-0-0-0-0-0-0-0-|

      If you dont do your work NO! But look what happened to her..

Chorus
e-----2-------------------0----------------3--------|
g-----3-------------------2----------------3--------|
b-----2---(strum once)----2---(strum once)-0---(x16-|
d-----0-------------------2----------------0--------|
a-----0-------------------0----------------2--------|
e-----0-------------------0----------------3--------|
      Oh shes Frustrated! And Angranated!  What did she dooo?
      FRUSTRATED!         AGRANATED!       What can ya do?
      Frustrated!         Angranated!      And I still - DOnt - Know - What -            
                              The - Hell - Is - TWO - PLUS -                            
              TWWOOOOOOOOOOOO
                                           WWWWAAAAAAAOOOOOOOWWWWW!


And heres the order...

verse 1
pre-chorus
chorus
verse 2 (same chords as 1)
pre-chorus
chorus (x3)
end!

Lyrics


Today I did some exams,
Yeh while you sat in school.
Sometimes I wonder,
Are you revising?
Or are you Just to cool.

Yeh, When Your feeling down and blue
You do some maths revision,
Add two plus two.
You'll get your answer,
But man, dont ever trust no-one but you.

YEH they got me dowwwnnnn
My Teacher says Your gonna drown
If you dont do your work NO!
But look what happened to her..
*chorus*
Oh shes Frustrated!
And Angranated!
What did she dooo?
FRUSTRATED!
AGRANATED!
What can ya do?
Frustrated!
Angranated!
And I still - DOnt - Know - What - The - Hell - Is - TWO - PLUS - TWWOOOOOOOOOOOO
WWWWAAAAAAAOOOOOOOWWWWW!

So just remember kids..
When your feeling down and blue
To do some revision
Or you'll end up in a load of Poo...

**************Enjoy!**************
Tap to rate this tab
# A B C D E F G H I J K L M N O P Q R S T U V W X Y Z