Song name
# A B C D E F G H I J K L M N O P Q R S T U V W X Y Z

Misc Unsigned Bands - Weenus - Gia tab

GIA- WEENUS
Drop D tuning
DADGBE

HAVE FUN!

Intro:
                            1st and 3rd times
e------------------------|--------------------------|
b------------------------|--------------------------|
g------------------------|--------------------------|   x3
d-------15-15-14-14------|-8-8------10-10-----------|
a------------------15-15-|-----8-8------------------|
D-12-12------------------|----------------8-8-------|

e---------------------------|
g---------------------------|
b---------------------------|
d-8~~-10~~------------------|
a-8~~-10~~------------------|
D-8~~-10~~------------------|

2nd time:

e--------------------------|
b--------------------------|
g--------------------------|
d-15-15------12-12---------|
a-------15-15------15-15---|
D--------------------------|

Chorus:
e------------------------------------------------------------------|
b------------------------------------------------------------------|
g------------------------------------------------------------------|
d-12-15-14-14-15-14-14--x2-8-10-10-x2--10-12-12--------------------|
a-12-12-12-15-12-12-15-----8-8--8------10-10-10--x2----------------|
D-12-12-12-12-12-12-12-----8-8--8------10-10-10--------------------|

Verse

e----------------------------------------------------------------------|
b----------------------------------------------------------------------|
g----------------------------------------------------------------------|
d-------15-----14------15----------x2-----10-------------12------------|
a-----------------------------15---------------x4--------------x4------|
D-12-12---12-12---12-12--12-12---------8-8---------10-10---------------|

Solo/Bridge
e-----------------13p12p10------------------------13p12p10------13p12p10----|
b--------------------------13~~~---------------------------13------------13-|
g--12-12-12-12-12-----------------12-12-12-12-12----------------------------|
a--12-12-12-12-12-----------------12-12-12-12-12----------------------------|
D--12-12-12-12-12-----------------12-12-12-12-12----------------------------|

e------------------13p12p10----13/15----------------13p12p10---13p12p10-----|
b---------------------------13------------------------------13-----------10-|
g-10-10-10-10-10---------------------10-10-10-10-10-------------------------|
d-10-10-10-10-10---------------------10-10-10-10-10-------------------------|
a-10-10-10-10-10---------------------10-10-10-10-10-------------------------|
D-10-10-10-10-10---------------------10-10-10-10-10-------------------------|

play it well!
Tap to rate this tab
 
# A B C D E F G H I J K L M N O P Q R S T U V W X Y Z