Song name
# A B C D E F G H I J K L M N O P Q R S T U V W X Y Z

Misc Unsigned Bands - Lucy Star - Better Place tab

----------------------------------------------------------------------------
			     Better Place - Lucy Star
----------------------------------------------------------------------------
Tabbed by:Yellowcard117
Email:Alechemist88@aol.com

Tuning: Standard - EADGBE

Intro (0:00)
e|--------------------|
B|--------------------|
G|--------------------|
D|-55677-2223-3-3xx---| (x4)
A|-55677-2223-3-3xx---|
E|-33455-0001-1-1xx---|

Verse (quieter)(0:12)
e|------------------|
B|------------------|
G|------------------|
D|-55677-2223-3-3---| (x4)
A|-55677-2223-3-3---|
E|-33455-0001-1-1---|

Chorus (the 10 is the fret #, not 1-0, on the F chord)(0:25)
		  (F)
e|---------------------------|
B|---------------------------|
G|-555-----777/10-10101010---|
D|-555-7-7-777/10-10101010---| (x4)
A|-333-7-7-555/8--8-8-8-8----|
E|-----5-5-------------------|

Intro (0:38)
e|--------------------|
B|--------------------|
G|--------------------|
D|-55677-2223-3-3xx---| (x2)
A|-55677-2223-3-3xx---|
E|-33455-0001-1-1xx---|

Verse (quieter)(0:44)
e|------------------|
B|------------------|
G|------------------|
D|-55677-2223-3-3---| (x4)
A|-55677-2223-3-3---|
E|-33455-0001-1-1---|

Chorus (the 10 is the fret #, not 1-0, on the F chord)(0:57)
		  (F)
e|---------------------------|
B|---------------------------|
G|-555-----777/10-10101010---|
D|-555-7-7-777/10-10101010---| (x4)
A|-333-7-7-555/8--8-8-8-8----|
E|-----5-5-------------------|

Bridge (1:09)
e|------------------------------------|
B|------------------------------------|
G|-55555555/99999999-10-x7-8-x5-5555--|
D|-55555555/99999999-10-x7-8-x5-5555--| (x2)
A|-33333333/77777777-8--x5-6-x3-3333--|
E|------------------------------------|

e|------------------------------------|
B|------------------------------------|
G|------------------------------------|
D|-2222222233333333-------------------| (x1)
A|-2222222233333333-6565656565656565--|
E|-0000000011111111-------------------|

Intro (1:29)
e|--------------------|
B|--------------------|
G|--------------------|
D|-55677-2223-3-3xx---| (x2)
A|-55677-2223-3-3xx---|
E|-33455-0001-1-1xx---|

Verse (quieter)(1:35)
e|------------------|
B|------------------|
G|------------------|
D|-55677-2223-3-3---| (x4)
A|-55677-2223-3-3---|
E|-33455-0001-1-1---|

Chorus (on the F chord, the 10 is the fret #, not 1-0)(1:48)
		  (F)
e|-----------------------------|
B|-----------------------------|
G|-555-----777/10-10101010-----|
D|-555-7-7-777/10-10101010-----| (x4)
A|-333-7-7-555/8--8-8-8-8------|
E|-----5-5---------------------|

Bridge (2:01)
e|------------------------------------|
B|------------------------------------|
G|-55555555/99999999-10-x7-8-x5-5555--|
D|-55555555/99999999-10-x7-8-x5-5555--| (x2)
A|-33333333/77777777-8--x5-6-x3-3333--|
E|------------------------------------|

e|------------------------------------|
B|------------------------------------|
G|------------------------------------|
D|-2222222233333333-------------------| (x1)
A|-2222222233333333-6565656565656565--|
E|-0000000011111111-------------------|

Guitar Solo (2:20)
e|--------------------------------------------------------------|
B|----------------13-13-13-15-15-15-15-13-13----13----13-14b(15)|
G|-12-12-13-14-14----------------------------14----14-----------|
D|--------------------------------------------------------------|
A|--------------------------------------------------------------|
E|--------------------------------------------------------------|

e|-----------------------------------------------------------|
B|-------------------------------------13-13-13-15-15-15-15--|
G|-14-12-12-12-14-14-14-14-12-14-12-14-----------------------|
D|-----------------------------------------------------------|
A|-----------------------------------------------------------|
E|-----------------------------------------------------------|

e|-12-12-12-13-13-13-15-15-15-15-15-15-15-15-----------------|
B|-------------------------------------------13-13-15-15-----|
G|-----------------------------------------------------------|
D|-----------------------------------------------------------|
A|-----------------------------------------------------------|
E|-----------------------------------------------------------|

e|----------12-12-12-13-13-13-13-12-12----12----12-12b(13)-12-|
B|-13-13-15----------------------------15----15---------------|
G|------------------------------------------------------------|
D|------------------------------------------------------------|
A|------------------------------------------------------------|
E|------------------------------------------------------------|

e|-------------------------------------------------------------|
B|-15-13-13-13-15-13-13-15-13-13-15-13-15-13-13-15-13-13-15-13-|
G|-------------------------------------------------------------|
D|-------------------------------------------------------------|
A|-------------------------------------------------------------|
E|-------------------------------------------------------------|

e|----------------------------------------------------------------|
B|-15b(16)-15b(16)-15b(16)-15b(16)-15b(16)-15b(16)-15b(16)-15b(16)|
G|----------------------------------------------------------------|
D|----------------------------------------------------------------|
A|----------------------------------------------------------------|
E|----------------------------------------------------------------|

e|-15------15------15------15------15------15------15------15-----|
B|-15b(16)-15b(16)-15b(16)-15b(16)-15b(16)-15b(16)-15b(16)-15b(16)|
G|----------------------------------------------------------------|
D|----------------------------------------------------------------|
A|----------------------------------------------------------------|
E|----------------------------------------------------------------|

Bridge (2:45)
e|------------------------------------|
B|------------------------------------|
G|-55555555/99999999-10-x7-8-x5-5555--|
D|-55555555/99999999-10-x7-8-x5-5555--| (x2)
A|-33333333/77777777-8--x5-6-x3-3333--|
E|------------------------------------|

e|------------------------------------|
B|------------------------------------|
G|------------------------------------|
D|-2222222233333333-------------------| (x1)
A|-2222222233333333-6565656565656565--|
E|-0000000011111111-------------------|

Intro (3:05)
e|--------------------|
B|--------------------|
G|--------------------|
D|-55677-2223-3-3xx---| (x1)
A|-55677-2223-3-3xx---|
E|-33455-0001-1-1xx---|

Outro (3:08)
e|----------------|
B|----------------|
G|----------------|
D|-55677-2223-----| (x1)
A|-55677-2223-----|
E|-33455-0001-----|

| /  slide up
| \  slide down
| h  hammer-on
| p  pull-off
| ~  vibrato
| +  harmonic
| x  Mute note
============================================================================
Tap to rate this tab
 
# A B C D E F G H I J K L M N O P Q R S T U V W X Y Z