Song name
# A B C D E F G H I J K L M N O P Q R S T U V W X Y Z

Misc Unsigned Bands - Something Like Serenity - Your Favourite Fasion Victim tab

Official Website: www.somethinglikeserenity.tk

Ginge-guitar 1
Myke-guitar 2



bass intro...

intro (pt1)

guitar 1/2

>-----------------------------<
>-----------------------------<
>-442~-2-442~-2-664~-4-664~-4-<
>-442~-2-442~-2-664~-4-664~-4-<
>-220~-0-220~-0-442~-2-442~-2-<
>-----------------------------< repeat 2 times





intro (pt2)


guitar 1

>7-7775-5555-7-7775-555-9 -9 9 9 7 -7 7 7 7 -9-9 9 9 -7-7 7 7 7 <
>8-8888-8888-8-8888-888-10-10101010-10101010-10101010-1010101010<
>5-5555-5555-5-5555-555-5 -5 5 5 5 -5 5 5 5 -5 5 5 5 -5 5 5 5 5 <
>---------------------------------------------------------------<
>---------------------------------------------------------------<
>---------------------------------------------------------------< repeat 2 
>times

guitar 2

>-----------------------------<
>-----------------------------<
>-442~-2-442~-2-664~-4-664~-4-<
>-442~-2-442~-2-664~-4-664~-4-<
>-220~-0-220~-0-442~-2-442~-2-<
>-----------------------------< repeat 2 times




bass verse...




chorus:

guitar1/2

>--------------------------------------------<
>--------------------------------------------<
>22222222222777777777779999999999944444444444<
>22222222222777777777779999999999944444444444<
>00000000000555555555557777777777722222222222<
>--------------------------------------------< repeat 2 times

guitar 1/2

>--------------------------------------------<
>--------------------------------------------<
>222222222--777777777--999999999--444444444--<
>222222222--777777777--999999999--444444444--<
>000000000--555555555--777777777--222222222--<
>--------------------------------------------<  repeat 2 times





post chorus...

guitar 1 (guitar 2 break)

>------------<
>------------<
>224~--224~--<
>224~--224~--<
>002~--002~--<
>------------<





repeat intro (pt1) x2


bass verse...


repeat chorus...


repeat post chorus...





guitar 1

[-----------8-7-10-8-7--------------------------8-7-8-10-8-7--------------------]
[---8-8/10--------------10-8-7-7h8p7-----8-8/10--------------10-8-7----7-8-10~--]
[-5------------------------------------5----------------------------10----------]
[-------------------------------------------------------------------------------]
[-------------------------------------------------------------------------------]
[-------------------------------------------------------------------------------]

[-8//10//12--12--12--15--13--12--12--12h13p12--10//12--13--13--13----12-10-8~---]
[--10//12//13--13--13--13--13--13--13------------12//13--13--13--13--12-10-8~---]
[-------------------------------------------------------------------------------]
[-------------------------------------------------------------------------------]
[-------------------------------------------------------------------------------]
[-------------------------------------------------------------------------------]

*''''''''''''''''''''''''''''let''ring''''''''''''''''''''''''''''''*


guitar 2 (under solo) - repeat intro (pt1) x2






guitar 1/2 - repeat intro (pt1) x2


repeat chorus...


repeat post chorus..




outro

guitar 1/2:

>----------------------------<
>----------------------------<
>-442~-2-442~-2-442~-2-442---<
>-442~-2-442~-2-442~-2-442---<
>-220~-0-220~-0-442~-2-442---<
>----------------------------<
Tap to rate this tab
 
# A B C D E F G H I J K L M N O P Q R S T U V W X Y Z