Guitaretab - guitar tabs
Song name
# A B C D E F G H I J K L M N O P Q R S T U V W X Y Z

Misc Unsigned Bands - Lightspeed Champion - Tell Me What Its Worth tab

------------------------------------------------------------------------------
			     tell me what its worth - lightspeed champion
-------------------------------------------------------------------------------
Tabbed by:jamjar
Email:

Tuning: standard duh

ok this is by a guy called dev hynes out of test icicles i did a breif tab by ear one
an just thought id post it i know its not perfect but ive done a ok job i think you can
to the song on his myspace (myspace.com/lightspeedchampion) cause thats where i heard of 
in the first place any ways


INTRO
e|---------------------------------------------------------------------------|
B|---------------------------------------------------------------------------|
G|---------------------------------------------------------------------------|
D|--9---9-9----9---9-9----9---9-9----9---9-9---------------------------------|
A|--9---9-9----9---9-9----9---9-9----9---9-9---------------------------------|
E|--7---7-7----7---7-7----7---7-7----7---7-7---------------------------------|

FIRST VERSE GUITAR ONE X2
e|---------------------------------------------------------------------------|
B|---------------------------------------------------------------------------|
G|---------------------------------------------------------------------------|
D|--9---9-9----9---9-9----6---6-6----6---6-6---------------------------------|
A|--9---9-9----9---9-9----6---6-6----6---6-6---------------------------------|
E|--7---7-7----7---7-7----4---4-4----4---4-4---------------------------------|


e|---------------------------------------------------------------------------|
B|---------------------------------------------------------------------------|
G|------------------------4---4-4----4---4-4---------------------------------|
D|--9---9-9----9---9-9----6---6-6----6---6-6---------------------------------|
A|--9---9-9----9---9-9----6---6-6----6---6-6---------------------------------|
E|--7---7-7----7---7-7----4---4-4----4---4-4---------------------------------|

GUITAR TWO
e|---------------------------------------------------------------------------|
B|---------------------------------------------------------------------------|
G|---------------------------------------------------------------------------|
D|---------------------------------------------------------------------------|
A|---------------------------------------------------------------------------|
E|---------------------------------------------------------------------------|
[ Tab from: http://www.guitaretab.com/m/misc-unsigned-bands/73090.html ]
e|------------------------------------------6-4---------------------------------|
B|-----------------------------------------------7-5----------------------------|
G|-----------------------------------------------------8------------------------|
D|------------------------------------------------------------------------------|
A|------------------------------------------------------------------------------|
E|------------------------------------------------------------------------------|

GUITAR ONE
e|---------------------------------------------------------------------------|
B|---------------------------------------------------------------------------|
G|------------------------4---4-4----4---4-4---------------------------------|
D|--9---9-9----9---9-9----6---6-6----6---6-6---------------------------------|
A|--9---9-9----9---9-9----6---6-6----6---6-6---------------------------------|
E|--7---7-7----7---7-7----4---4-4----4---4-4---------------------------------|


e|---------------------------------------------------------------------------|
B|---------------------------------------------------------------------------|
G|------------------------4---4-4----4---4-4---------------------------------|
D|--9---9-9----9---9-9----6---6-6----6---6-6---------------------------------|
A|--9---9-9----9---9-9----6---6-6----6---6-6---------------------------------|
E|--7---7-7----7---7-7----4---4-4----4---4-4---------------------------------|

GUITAR TWO
e|---------------------------------------------------------------------------|
B|---7----7----7----7------9----9----9----9----------------------------------|
G|-----8----8----8------8----8----8----8-----8-------------------------------|
D|--9-9--9-9--9-9--9-9----9-9--9-9--9-9--9-9---------------------------------|
A|---------------------------------------------------------------------------|
E|---------------------------------------------------------------------------|

e|---------------------------------------------------------------------------|
B|---7----7----7----7------9----9----9----9----------------------------------|
G|-----8----8----8------8----8----8----8-------------------------------------|
D|--9-9--9-9--9-9--9-9----9-9--9-9--9-9--9-9---------------------------------|
A|---------------------------------------------------------------------------|
E|---------------------------------------------------------------------------|

CHORUS BOTH GUITARS
e|---------------------------------------------------------------------------|
B|--9---9----------------------9---9-----------------------------------------|
G|--8---8----------8---8-------8---8----------8---8--------------------------|
D|--9---9----------9---9-------9---9----------9---9--------------------------|
A|--7---7----------9---9-------7---7----------9---9--------------------------|
E|-----------------7---7----------------------7---7--------------------------|

REPEAT VERSE THEN CHROUS

THIS ISNT COMPLETE BUT ITS THE BEST I CAN DO THATS ALL IVE GOT UP TO NOW ILL PROBABLY
IT IF I GET TIME BUT THE SONG IS BASED AROUND THESE CHORDS ANYWAY
Related for Lightspeed Champion - Tell Me What Its Worth tab
Advertisement will be closed in 10 seconds