Song name
# A B C D E F G H I J K L M N O P Q R S T U V W X Y Z

Misc Unsigned Bands - A Hopless Thougth - The Wrath Of Skelator tab

Tabbed by Chris
This is the roudiest song ever
.=palm mute
<>=bend
~=ring out

Intro
Guitar 2
e)----------------------------------------------------------|
B)-------0-------------0-------------0-----------0----------|
G)-----9---9---------9---9---------9---9-------9---9--------|
D)---8-------8-----8-------8-----7-------7---7-------7------|x2
A)-7-----------7-7-----------7-8-----------8-----------8----|
D)----------------------------------------------------------|

Intro 2
Guitar 1&2
e)------------------------------------][------------------------|
B)------------------------------------][------------------------|
G)------------------------9p0-<10>----][------------------------|
D)----------------7p0-8p0-------------][--------------------7---|x2
A)---7p0-8p0-10p0-----------------x2--][----7----8----10--------|
D)-00---------------------------------][-77---77---77----77-----|
   ..                                    ..   ..   ..    ..
e)-------------------------------------][------------------------|
B)-------------------------------------][------------------------|
G)-------------------------9p0-<10>----][------------------------|
D)-----------------7p0-8p0-------------][--------------------7---|x2
A)----7p0-8p0-10p0-----------------x2--][----7----8----10--------|
D)-00----------------------------------][-77---77---77----77-----|
   ..                                     ..   ..   ..    ..
e)-------------------------------------------------|
B)-------------------------------------------------|
G)----9---10----11----14----9---10----12---14------|
D)-------------------------------------------------|
A)----7----8----10----12----7----8----10---12------|
D)-00---00---00----00----00---00---00---00---------|
   ..   ..   ..    ..    ..   ..   ..   ..
e)-------------------------------------------------|
B)-------------------------------------------------|
G)----9---10----11----14----9---10----12---14------|
D)-------------------------------------------------|
A)----7----8----10----12----7----8----10---12------|
D)-88---88---88----88----88---88---88---88---------|
   ..   ..   ..    ..    ..   ..   ..   ..
Guitar 2
e)------------------------------------][------------------------|
B)------------------------------------][------------------------|
G)------------------------9p0-<10>----][------------------------|
D)----------------7p0-8p0-------------][--------------------7---|x2
A)---7p0-8p0-10p0-----------------x2--][----7----8----10--------|
D)-00---------------------------------][-77---77---77----77-----|
   ..                                    ..   ..   ..    ..
Guitar 1
e)--------------------------------------------][------------------------|
B)--------------------------------------------][------------------------|
G)----------------------------21p0-<22>-------][------------------------|
D)------------------19p0-20p0-----------------][--------------------7---|x2
A)---19p0-20p0-22p0-----------------------x2--][----7----8----10--------|
D)-00-----------------------------------------][-77---77---77----77-----|
   ..                                            ..   ..   ..    ..
Breakdown
Guitar 1&2
e)------------------------------------][------------------------------------|
B)------------------------------------][------------------------------------|
G)-----15-----14-----12---10----9-----][-----17-----15-----14----12----10---|
D)-000----000----000----00---00-----x2][-000----000----000----00----00------|
A)-000-13-000-12-000-10-00-8-00-7-----][-000-15-000-13-000-12-00-10-00--8---|
D)-000----000----000----00---00-------][-000----000----000----00----00------|
   ...    ...    ...    ..   ..          ...    ...    ...    ..    ..
e)------------------------------------|
B)------------------------------------|
G)-----15-----14-----12---10----9-----|
D)-000----000----000----00---00-------|
A)-000-13-000-12-000-10-00-8-00-7-----|
D)-000----000----000----00---00-------|
   ...    ...    ...    ..   ..
Verse
Guitar 1
e)----------------------------------------------------------------------|
B)----------------------------------------------------------------------|
G)----------------------------------------------------------------------|
D)-88888888888888887777777755555555--88888888888888887777777755555555---|
A)-88888888888888887777777755555555--88888888888888887777777755555555---|
D)-88888888888888887777777755555555--88888888888888887777777755555555---|

e)--------------------------------------------------|
B)--------------------------------------------------|
G)----10----12----14----15----10----12----14----15--|
D)-00----00----00----00----00----00----00----00-----|x2
A)-00--8-00-10-00-12-00-13-00--8-00-10-00-12-00-13--|
D)-00----00----00----00----00----00----00----00-----|

Guitar 2
e)----------------------------------------------------------------------|
B)----------------------------------------------------------------------|
G)----------------------------------------------------------------------|
D)-88888888888888887777777755555555--88888888888888887777777755555555---|
A)-88888888888888887777777755555555--88888888888888887777777755555555---|
D)-88888888888888887777777755555555--88888888888888887777777755555555---|

e)--------------------------------------------------|
B)--------------------------------------------------|
G)----10----9----7----5----10----9----7----5--------|
D)-00----00---00---00---00----00---00---00----------|x2
A)-00--8-00-7-00-5-00-3-00--8-00-7-00-5-00-3--------|
D)-00----00---00---00---00----00---00---00----------|

Pre Chorus
Guitar 1&2

e)----------------------------------------------------------------------|
B)----------------------------------------------------------------------|
G)----------------------------------------------------------------------|
D)-88888888888888887777777755555555--88888888888888887777777755555555---|
A)-88888888888888887777777755555555--88888888888888887777777755555555---|
D)-88888888888888887777777755555555--88888888888888887777777755555555---|

Chorus
Guitar 1&2
e)------------------------------------------------------|
B)------------------------------------------------------|
G)----101010----101010----------------------------------|
D)----------------------888777555333--------------------|x4
A)-----8-8-8-----8-8-8--888777555333--------------------|
D)-000-------000--------888777555333--------------------|

Play Intro 2
end on
D)-000~~~~~------|
A)-000~~~~~------|
D)-000~~~~~------|
   ...

FIN
Tap to rate this tab
 
# A B C D E F G H I J K L M N O P Q R S T U V W X Y Z