Guitaretab - guitar tabs
Song name
# A B C D E F G H I J K L M N O P Q R S T U V W X Y Z

Misc Unsigned Bands - Writing In Whispers - When It Crashes tab

Intro:
|-------------------------------------|
|-------------------------------------|
|-------------------------------------|
|-55-55-55-55-9999---77-77-77-77-3333-|
|-55-55-55-55-9999---77-77-77-77-3333-|
|-33-33-33-33-7777---55-55-55-55-1111-|

|-----------------------------------------|
|-----------------------------------------|
|-55-55-55-55-9999---77-77-77-77-33333333-|
|-55-55-55-55-9999---77-77-77-77-33333333-|
|-33-33-33-33-7777---55-55-55-55-11111111-|
|-----------------------------------------|

Verse 1:
|------------------------|----------------------|
|------------------------|----------------------|
|------7-9---------------|----------------4-222-|
|-7-9--7-9--33-3-33-33-3-|-4-4-6--8-8-10--4-222-|
|-7-9--5-7--33-3-33-33-3-|-4-4-6--8-8-10--2-000-|
|-5-7-------11-1-11-11-1-|-2-2-4--6-6-8--------|

Verse 2:
|-------------------------------------------|
|-------------------------------------------|
|-------------------------------------------|
|-6-444--3-5555555--7-6666---999-1010101010-|
|-6-444--3-5555555--7-6666---999-1010101010-|
|-4-222--1-3333333--5-4444---777--8-8-8-8-8-|

PreChorus:
|-------------------------------|
|-------------------------------|
|-------------------------------|
|-22-444--555-777--6-444-111111-|
|-22-444--555-777--6-444-111111-|
|-22-444--555-777--6-444-111111-|
[ Tab from: http://www.guitaretab.com/m/misc-unsigned-bands/73157.html ]
Chorus 1:                    Chorus 2:          After:
|---------------------------|------------------|---------------------------|
|---------------------------|------------------|---------------------------|
|-----666------4444---------|-6------4-222-----|---------------------------|
|-666-666---44-4444--000000-|-6-222--4-222-555-|-4-555-7-666---------------|
|-666-444---44-2222--000000-|-4-222--2-000-555-|-4-555-7-666---------------|
|-444-------22-------000000-|---000--------555-|-4-555-7-666---1~~~~~~~~/12|

Verse 3:
|---------------------------------------------|
|---------------------------------------------|
|----------7-7-9-9----------------------------|
|-7-9-9-9--7-7-9-9--33-3-33---22-444-666---12-|
|-7-9-9-9--5-5-7-7--33-3-33---22-444-666---12-|
|-5-7-7-7-----------11-1-11---22-444-666---12-|  

Verse 4:
|---------------------------------------------------|
|---------------------------------------------------|
|---------------------------------------------------|
|-9999---13-13-13---10-10-10-10-10-10---12-12-12-12-|
|-9999---13-13-13---10-10-10-10-10-10---12-12-12-12-|
|-9999---11-11-11----8--8--8--8--8--8---12-12-12-12-|

Bridge:
|------------------------------------|-------------------|----------|
|------------------------------------|-------------------|----------|
|-66666666-88888888-1010101010101010-|-66666666-88888888-|-66666666-|
|-xxxxxxxx-xxxxxxxx-xxxxxxxxxxxxxxxx-|-xxxxxxxx-xxxxxxxx-|-xxxxxxxx-|
|-44444444-66666666--8-8-8-8-8-8-8-8-|-44444444-66666666-|-44444444-|
|------------------------------------|-------------------|----------|

Chorus 1:                    Chorus 2:
|---------------------------|------------------|
|---------------------------|------------------|
|-----666------4444---------|-6------4-222-----|   2x
|-666-666---44-4444--000000-|-6-222--4-222-555-|  /
|-666-444---44-2222--000000-|-4-222--2-000-555-| /
|-444-------22-------000000-|---000--------555-|/
Related for Writing In Whispers - When It Crashes tab