Song name
# A B C D E F G H I J K L M N O P Q R S T U V W X Y Z

Misc Unsigned Bands - Clinical Picture - One Whose There tab

-----------------------------------------------------------------------------
			     One whose there - clinical picture
-----------------------------------------------------------------------------
Tabbed by:Steve
Email:allchavsrgay@hotmail.com

Tuning:  standard

there isnt much to this song but its still good

Intro/verse
e|------------------------------------------------------------------|
B|---------1-----------1-------------0------------------------------|
G|-----2-----2-----0-----0-------0-----0----------------------------|
D|---2---2-------2---2-----2---0---0---------0----------------------|
A|-0-----------3-------------2-------------2---2--2h3p2 2h3p2-------|
E|---------------------------------------3--------------------------|

chorus/birdge
e|-0-0-0----------------------3-3-3-3-3-3---|
B|-1-1-1--1-1-1-1-1-1---------0-0-0-0-0-0---|
G|-2-2-2--0-0-0-0-0-0--0-0-0--0-0-0-0-0-0---|
D|-2-2-2--2-2-2-2-2-2--2-2-2--0-0-0-0-0-0---|
A|-0-0-0--3-3-3-3-3-3--2-2-2--2-2-2-2-2-2---|
E|---------------------0-0-0--3-3-3-3-3-3---|


I hate working out the order and this song is simple enough so u can work it out yourself.
Tap to rate this tab
# A B C D E F G H I J K L M N O P Q R S T U V W X Y Z