Song name
# A B C D E F G H I J K L M N O P Q R S T U V W X Y Z

Misc Unsigned Bands - Decibal - Gunned Down tab

                               Decibal
                             Gunned Down
                              RR Studios
INTRO (Chorus)                  2006
e-------------------------------------------------------------------------|
B-------------------------------------------------------------------------|
G-------------------------------------------------------------------------|
D-------------------------------------------------------------------------| x2
A--7-9-7-5-7---------5-7~~~-7-9-7-5-7-------5~~~--------------------------|
E--0----------0-5-7---------0---------0-5-7-----7~~~----------------------|
                                                      First Guitar

e-------------------3-----------------------------------------------------|
B-------3-------3---3-----3-----3-----------------------------------------|
G--2----2---2---2---0--2--2--2--2--2--------------------------------------|
D--2----0---2---0------2--0--2--0--2--------------------------------------| x2
A--0--------0----------0-----0-----0--------------------------------------|
E-------------------------------------------------------------------------|
                                           Second and Third Guitar
VERSE
e---------------------------------3----------------------------------------|
B------------------------------3--3--3-------------------------------------|
G-2-2--2-x-2-2-----------------2--0--2--2----------------------------------|
D-2-2--2-x-2-2----x8-----------0-----0--2----------------------------------|
A-0-0--0-x-0-0--------------------------0----------------------------------|
E--------------------------------------------------------------------------|

Chorus

BRIDGE
e-------3------------------------------------------------------------------|
B----3--3--3---------------------------------------------------------------|
G-2--2--0--2---------------------------------------------------------------|
D-2--0-----0---------------------------------------------------------------|
A-0----------3-5-3-5-0-----------------------------------------------------|
E--------------------------------------------------------------------------|

SOLO
e-------------------------------12-(14)-(14)-(14)-12-----------------------|
B-------------------------12-14-----------------------14~~~----------------|
G-------------------12-14--------------------------------------------------|
D-------------12-14--------------------------------------------------------|
A-------12-14--------------------------------------------------------------|
E-12~~~--------------------------------------------------------------------|

e------------------------------------(12)--------------12------------------|
B-12h14-14-14-12h14-14-14-12h14-14-14-----14~~~--12-14----14~~~------------|
G--------------------------------------------------------------------------|
D--------------------------------------------------------------------------|
A--------------------------------------------------------------------------|
E--------------------------------------------------------------------------|

e----------------------------------------------------13-(15)-(15)-(15)-(15--|
B-12-------------------------------------------13-15------------------------|
G----14~~~--12---------------------------13-15------------------------------|
D--------------14~~~---------------13-15------------------------------------|
A---------------------------13-15-------------------------------------------|
E---------------------13-15-------------------------------------------------|

e---------------------------------15-(17)-(17)-(17)-(17)----(19)-(19)-17----|
B---------------------------15-17----------------------------------------19-|
G--------------------15-17--------------------------------------------------|
D-------------15-17---------------------------------------------------------|
A-------15-17---------------------------------------------------------------|
E-15-17---------------------------------------------------------------------|

e--------------------------------------------------------------------------|
B-17-----------------------------------------------------------------------|
G-----19-17----------------------------------------------------------------|
D-------------19-17--------------------------------------------------------|
A----------------------19-17-----------------------------------------------|
E----------------------------19~~~-----------------------------------------|

e-----T-----------T-------------T--------------T---------------T-----------|
B-3-5-7--x8---5-7-9---x8---7-9-11---x4---9-11-13---x4---11-13-15---x4------|
G--------------------------------------------------------------------------|
D--------------------------------------------------------------------------|
A--------------------------------------------------------------------------|
E--------------------------------------------------------------------------|
e---------T---------------T------------------------------------------------|
B--13-15-17---x4---15-17-19---x4--(21)-------------------------------------|
G--------------------------------------------------------------------------|
D--------------------------------------------------------------------------|
A--------------------------------------------------------------------------|
E--------------------------------------------------------------------------|

Chourus
_____________________________________________________________________________

Symbols:

(14)= Bend

14~= Vibrato

Amp: Behringer V-Tone GM108

Drive:6.5
Amp:British
Mode:Hot
Speaker:UK
Low:8
Medium:4
High:6
Master:8

Guitar:
Fender Stratocaster
Burswood electric
Peavey Raptor Plus

NOTE*: all the items said here are only used in recording.
Tap to rate this tab
# A B C D E F G H I J K L M N O P Q R S T U V W X Y Z