Song name
# A B C D E F G H I J K L M N O P Q R S T U V W X Y Z

Misc Unsigned Bands - Acidic Hypocrite - Animate tab

Key:
b - bend
r - release
~ - tremolo
^ - let ring
()- strike, stop
/ - slide up
 - slide down
. - palm mute

Intro (full play)/Verse (all muted)
Guitar 1/2
Palm mute                          .
-|---------------------------------------------|
-|---------------------------------------------|
-|---------------------------------------------|
-|-777-9^^^^^-77-99^^^^-777-9^^^^^-------------|
-|-777-7^^^^^-77-77^^^^-777-7^^^^^-5(5)--------|
-|-555-0^^^^^-55-00^^^^-555-0^^^^^------(6)(6--| (x2)

Chorus (Guitar 1/2)
-|--------------------------------|
-|--------------------------------|
-|--------------------------------|
-|-----------------55555555-55-55-|
-|-55555555-55-55--33333333-33-33-|
-|-33333333-33-33-----------------| (x2)

This is the chorus the second time after the verse - The rhythm guitarist plays the same chorus riff:
-|--------------------------------|
-|--------------------------------|
-|--------------------------------|
-|-----------------55555555-55-55-|
-|-55555555-55-55--33333333-33-33-|
-|-33333333-33-33-----------------| (x2)

Guitar 1 plays the following:
-|--------------------------------------------------|
-|------------------------------------------------8-|
-|-7b-5-3-7b-5-3-7b-5-3-55^^-7b-5-3-7b-5-3-7b-5-3---|
-|--------------------------------------------------|
-|--------------------------------------------------|
-|--------------------------------------------------| (x2)

Then Guitar 1 plays the solo:
(it's all on the bottom skinny string)
YOU NEED WAH!
-|-15-17-15-18-17-15-13-17-15-18-17-15-15-17-15-17-18-17-20-18-17-18-17-15-|
-|-------------------------------------------------------------------------|
-|-------------------------------------------------------------------------|
-|-------------------------------------------------------------------------|
-|-------------------------------------------------------------------------|
-|-------------------------------------------------------------------------|

Then you play the chorus just how it is played the second time.

Guitar 1 plays:
-|--------------------------------------------------|
-|------------------------------------------------8-|
-|-7b-5-3-7b-5-3-7b-5-3-55^^-7b-5-3-7b-5-3-7b-5-3---|
-|--------------------------------------------------|
-|--------------------------------------------------|
-|--------------------------------------------------| (x2)

While Guitar 2:
-|--------------------------------|
-|--------------------------------|
-|--------------------------------|
-|-----------------55555555-55-55-|
-|-55555555-55-55--33333333-33-33-|
-|-33333333-33-33-----------------| (x2)
Tap to rate this tab
 
# A B C D E F G H I J K L M N O P Q R S T U V W X Y Z