Song name
# A B C D E F G H I J K L M N O P Q R S T U V W X Y Z

Misc Unsigned Bands - Doc Woz - Three Times A Charm tab

--------------------------------------------------------------------------
               Three Times A Charm – Doc Woz –Misc Unsigned Band
--------------------------------------------------------------------------
Tabbed by: JJ
Email:acdc_tattoo@yahoo.com

Tuning:standard

Intro (clean)
e|---2—2h3p2--0--3--2—2h3p2-0--x---|
B|---3--------3--3--3-------3--2---|
G|---2--------2--0--2-------2--2---|  3x
D|---------------0-------------2---|
A|---------------x-------------0---|
E|---------------3-----------------|

Verse (distorted)
e|--3-3--2-2--x-x--xxx-3-2---3-3--2-2--x-x--x----------------------------|
B|--3-3--3-3--2-2--222-3-3---3-3--3-3--2-2--2----------------------------|
G|--0-0--2-2--2-2--222-0-2---0-0--2-2--2-2--2-----4p2p0------------------|
D|--0-0-------2-2--222-0-----0-0-------2-2--2-----------4p2p0------------| 3x
A|--x-x-------0-0--000-x-----x-x-------0-0-—0----------------------------|
E|--3-3----------------3-----3-3-----------------------------------------|

e|--3-3--2-2--x-x--xxx-3-2--3-33-2222------------------------------------|
B|--3-3--3-3--2-2--222-3-3--3-33-3333------------------------------------|
G|--0-0--2-2--2-2--222-0-2--0-00-2222------------------------------------|
D|--0-0-------2-2--222-0----3-33-----------------------------------------| 1x
A|--x-x-------0-0--000-x----x-xx-----------------------------------------|
E|--3-3----------------3----3-33-----------------------------------------|

Chorus
e|-----------------------------------------------------------------------|
B|-----------------------------------------------------------------------|
G|----/9-9999-99-999--7-7-7777-77-777------------------------------------|
D|----/9-9999-99-999--7-7-7777-77-777--99\\\5-55-555—-99\\\5-55-555------| 2x
A|----/7-7777-77-777--5-5-5555-55-555—-99\\\5-55-555-—99\\\5-55-555------|
E|-------------------------------------77\\\3-33-333--77\\\3-33-333------|

Verse 
e|--3-3--2-2--x-x--xxx-3-2---3-3--2-2--x-x--x----------------------------|
B|--3-3--3-3--2-2--222-3-3---3-3--3-3--2-2--2----------------------------|
G|--0-0--2-2--2-2--222-0-2---0-0--2-2--2-2--2-----4p2p0------------------|
D|--0-0-------2-2--222-0-----0-0-------2-2--2-----------4p2p0------------| 3x
A|--x-x-------0-0--000-x-----x-x-------0-0-—0----------------------------|
E|--3-3----------------3-----3-3-----------------------------------------|

e|--3-3--2-2--x-x--xxx-3-2--3-33-2222------------------------------------|
B|--3-3--3-3--2-2--222-3-3--3-33-3333------------------------------------|
G|--0-0--2-2--2-2--222-0-2--0-00-2222------------------------------------|
D|--0-0-------2-2--222-0----3-33-----------------------------------------| 1x
A|--x-x-------0-0--000-x----x-xx-----------------------------------------|
E|--3-3----------------3----3-33-----------------------------------------|

Chorus
e|-----------------------------------------------------------------------|
B|-----------------------------------------------------------------------|
G|----/9-9999-99-999--7-7-7777-77-777------------------------------------|
D|----/9-9999-99-999--7-7-7777-77-777--99\\\5-55-555—-99\\\5-55-555------| 2x
A|----/7-7777-77-777--5-5-5555-55-555—-99\\\5-55-555-—99\\\5-55-555------|
E|-------------------------------------77\\\3-33-333--77\\\3-33-333------|

Bridge
e|--------------------------------------------------------------------------|
B|--------------------------------------------------------------------------|
G|--------------------------------------------------------------------------|
D|----5-5-5-5-5-5-5-5-------14~---------------------------------------------|
A|----5-5-5-5-5-5-5-5-------14~---------------------------------------------|
E|----3-3-3-3-3-3-3-3-////--12~---------------------------------------------|

Solo
e|-12-12-12-12-14-14-12-12-12-12-12-12-14-14-12-12-12-12-12-12-14-14-12-12--|
B|--------------------------------------------------------------------------|
G|--------------------------------------------------------------------------|
D|--------------------------------------------------------------------------|
A|--------------------------------------------------------------------------|
E|--------------------------------------------------------------------------|

e|-12-12-12-12-14-14-12-12--------------------------------------------------|
B|-------------------------12-12-12-12-14-14-12-12-12-12-14-14-12-12-12-12--|
G|--------------------------------------------------------------------------|
D|--------------------------------------------------------------------------|
A|--------------------------------------------------------------------------|
E|--------------------------------------------------------------------------|

e|--------------------------------------------------------------------------|
B|-14-14-12-12-12-12-14-14-12-12-12-12-14-14-12-12-12-12-12-12-12-12-12-12--|
G|-------------------------------------------------12-12-14-14-12-12-14-14--|
D|--------------------------------------------------------------------------|
A|--------------------------------------------------------------------------|
E|--------------------------------------------------------------------------|


e|--------------------------12-12-14-14-12-12-14-14-12-12-14-14-12-12-14-14-|
B|-12-12-12-12-12-12-12-12--12-12-14-14-12-12-14-14-12-12-14-14-12-12-14-14-|
G|-12-12-14-14-12-12-14-14--------------------------------------------------|
D|--------------------------------------------------------------------------|
A|--------------------------------------------------------------------------|
E|--------------------------------------------------------------------------|

(TAP AND THEN PULL OFF)
    T      T      T      T      T      T      T      T      T      T                 
e|--11-9-7-11-9-7-11-9-7-11-9-7-11-9-7-11-9-7-11-9-7-11-9-7-12-9-7-12-9-7---|
B|--------------------------------------------------------------------------|
G|--------------------------------------------------------------------------|
D|--------------------------------------------------------------------------|
A|--------------------------------------------------------------------------|
E|--------------------------------------------------------------------------|

   T      T      T      T      T      T      T      T      T      T                  
e|-12-9-7-12-9-7-12-9-7-12-9-7-12-9-7-12-9-7-11-9-7-11-9-7-11-9-7-11-9-7----|
B|--------------------------------------------------------------------------|
G|--------------------------------------------------------------------------|
D|--------------------------------------------------------------------------|
A|--------------------------------------------------------------------------|
E|--------------------------------------------------------------------------|
 
  T      T      T      T      T      T      T      T          SLIDE PICK                
e|-11-9-7-11-9-7-11-9-7-11-9-7-12-9-7-12-9-7-12-9-7-12-9-7-----12/--\12-----|
B|--------------------------------------------------------------------------|
G|--------------------------------------------------------------------------|
D|--------------------------------------------------------------------------|
A|--------------------------------------------------------------------------|
E|--------------------------------------------------------------------------|

   T         T         T         T         T          T        T                
e|-12-11-9-7-12-11-9-7-12-11-9-7-12-11-9-7-12-11-9-7-12-11-9-7-12-11-9-7----|
B|--------------------------------------------------------------------------|
G|--------------------------------------------------------------------------|
D|--------------------------------------------------------------------------|
A|--------------------------------------------------------------------------|
E|--------------------------------------------------------------------------|
 
   T         T         T         T          T         T        T                      
e|-12-11-9-7-14-11-9-7-14-11-9-7-14-11-9-7-14-11-9-7-14-11-9-7-14-11-9-7----|
B|--------------------------------------------------------------------------|
G|--------------------------------------------------------------------------|
D|--------------------------------------------------------------------------|
A|--------------------------------------------------------------------------|
E|--------------------------------------------------------------------------|

  T          T        T          T          T          T          T               
e|14-11-9-7-14-11-9-7-14-12-11-9-14-12-11-9-14-12-11-9-14-12-11-9-14-12-11-9|
B|--------------------------------------------------------------------------|
G|--------------------------------------------------------------------------|
D|--------------------------------------------------------------------------|
A|--------------------------------------------------------------------------|
E|--------------------------------------------------------------------------|

   T          T          T          T          T          T                 
E|-14-12-11-9-14-12-11-9-14-12-11-9-16-12-11-9-16-12-11-9-16-12-11-9--------|
B|--------------------------------------------------------------------------|
G|--------------------------------------------------------------------------|
D|--------------------------------------------------------------------------|
A|--------------------------------------------------------------------------|
E|--------------------------------------------------------------------------|

   T          T          T          T          T                  
e|-16-12-11-9-16-12-11-9-16-12-11-9-16-12-11-9-16-12-11-9-------------------|
B|--------------------------------------------------------------------------|
G|--------------------------------------------------------------------------|
D|--------------------------------------------------------------------------|
A|--------------------------------------------------------------------------|
E|--------------------------------------------------------------------------|

e|--------------------------------------------------------------------------|
B|--------------------------------------------------------------------------|
G|--------------------------------------------------------------------------|
D|--------------------------------------------------------------------------|
A|--------5--5-5-5-5-5-------7—-7-7-7-+7-+7-+7-+7---------------------------|
E|----5-7----------------5-7------------------------------------------------|

Chorus
e|-----------------------------------------------------------------------|
B|-----------------------------------------------------------------------|
G|----/9-9999-99-999--7-7-7777-77-777------------------------------------|
D|----/9-9999-99-999--7-7-7777-77-777--99\\\5-55-555—-99\\\5-55-555------| 2x
A|----/7-7777-77-777--5-5-5555-55-555—-99\\\5-55-555-—99\\\5-55-555------|
E|-------------------------------------77\\\3-33-333--77\\\3-33-333------|

e|-----------------------------------------------------------------------|
B|-----------------------------------------------------------------------|
G|----/9-9999-99-999--7-7-7777-77-777------------------------------------|
D|----/9-9999-99-999--7-7-7777-77-777--99\\\5-55-555—-99\\\5~~~~---------| 1x
A|----/7-7777-77-777--5-5-5555-55-555—-99\\\5-55-555-—99\\\5~~~~---------|
E|-------------------------------------77\\\3-33-333--77\\\3~~~~---------|
 
Outro (clean)
e|---2—2h3p2--0--3--2—2h3p2-0--x---|
B|---3--------3--3--3-------3--2---|
G|---2--------2--0--2-------2--2---|  2x
D|---------------0-------------2---|
A|---------------x-------------0---|
E|---------------3-----------------|
 
(Distorted)
e|---------------------|
B|---------------------|
G|--7777777777777777---|
D|--7777777777777777---|
A|--5555555555555555---|
E|---------------------|

visit us at www.myspace.com/docwoz

| /  slide up
| \  slide down
| h  hammer-on
| p  pull-off
| ~  hold note
| +  pinch harmonic
| x  Mute note
====================================================================
Tap to rate this tab
# A B C D E F G H I J K L M N O P Q R S T U V W X Y Z