Song name
# A B C D E F G H I J K L M N O P Q R S T U V W X Y Z

Misc Unsigned Bands - Black Winter - Deception tab

Intro:
|-----------------------------------------------|
|-----------------------------------------------|
|--x--x--1--x--x--1--x--x--1--x--x--1--x--x--3-3| X 3
|--x--x--1--x--x--1--x--x--1--x--x--1--x--x--3-3|
|--x--x--1--x--x--1--x--x--1--x--x--1--x--x--3-3|

|--------------------------------------------------|
|--------------------------------------------------|
|--x--x--1--x--x--1--x--x--1--x--x--1--x--x---3/12-|
|--x--x--1--x--x--1--x--x--1--x--x--1--x--x---3/12-|
|--x--x--1--x--x--1--x--x--1--x--x--1--x--x---3/12-|
Main Riff
|------------------------|------------------------|
|------------------------|------------------------|
|------------------------|------------------------|
|------------------------|------------------------|
|-0-1-0-1-0-1-0-1--3-3--5|-0-1-0-1-0-1-0-1--5-5--3|
|-0-1-0-1-0-1-0-1--3-3--5|-0-1-0-1-0-1-0-1--5-5--3|

|------------------------|------------------------------|
|------------------------|------------------------------|
|------------------------|------------------------------|
|------------------------|--7-7-7-5-5-5-3-3-3-1-1-1-----|
|-0-1-0-1-0-1-0-1--3-3--5|--7-7-7-5-5-5-3-3-3-1-1-1--0-0|
|-0-1-0-1-0-1-0-1--3-3--5|--7-7-7-5-5-5-3-3-3-1-1-1--0-0|
Bridge
|-----------------------------------------|
|-----------------------------------------|
|-----------------------------------------| X 3
|-----------------------------------------|
|--x--x--3--3*---x--x--1--3*------5-5---3-|
|--x--x--3-------x--x--1----------3-3---1-|

|------------------------------|
|------------------------------|
|------------------------------|
|--7-7-7-5-5-5-3-3-3-1-1-1-----|
|--7-7-7-5-5-5-3-3-3-1-1-1--0-0|
|--7-7-7-5-5-5-3-3-3-1-1-1--0-0|
Chrous:
|-----------------------| |------------------------|
|-----------------------| |------------------------|
|-----------------------| |------------------------|
|-----------------------| |------------------------|
|-0-1-0-1-0-1-0-1-----3*| |-0-1-0-1-0-1-0-1-----5*-|
|-0-1-0-1-0-1-0-1-3h5---| |-0-1-0-1-0-1-0-1-5p3----|

|-----------------------| |------------------------------|
|-----------------------| |------------------------------|
|-----------------------| |------------------------------|
|-----------------------| |--7-7-7-5-5-5-3-3-3-1-1-1-----|
|-0-1-0-1-0-1-0-1-----3*| |--7-7-7-5-5-5-3-3-3-1-1-1--0-0|
|-0-1-0-1-0-1-0-1-3h5---| |--7-7-7-5-5-5-3-3-3-1-1-1--0-0|

Enjoy ^^ :)

Solo To Come.

Wardy,










Tap to rate this tab
# A B C D E F G H I J K L M N O P Q R S T U V W X Y Z