Song name
# A B C D E F G H I J K L M N O P Q R S T U V W X Y Z

Misc Unsigned Bands - Abc - Funaki tab

INTRO (x2)
e|----------------------------------------------------|
B|----------------------------------------------------|
G|----------------------------------------------------|
D|--------------------------------------------------9-|
A|-----11--11----11--11-----9--9-------------9-7-6----|
E|--9----------0---------9-----------6--7--9----------|

e|--------77--77------99-|
B|-----55---------00-----|
G|--66-------------------|
D|-----------------------|
A|-----------------------|
E|-----------------------|

VERSE (x4)
e|----------------------------|
B|----------------------------|
G|--9--9--2--2-----------7--9-|
D|--9--9--2--2-------1--------|
A|--7--7--0--0--1--2----------|
E|----------------------------|

PRECHORUS
e|--------------------------------------|
B|--------------------------------------|
G|--------------------------1-0-3-------|
D|--2--4--4--4--------4-2-0-------4-2-0-|
A|--2--4--4--4--0-2-4-------------------|
E|--2--4--4--4--------------------------|

CHORUS (x2)
e|---------------------------6-6------------7-7--|
B|-------------------------------5-5-------------|
G|------------------------------------4-4-5------|
D|--11-11-11-11--9--9--9--9----------------------|
A|--11-11-11-11--9--9--9--9----------------------|
E|--9--9--9--9---7--7--7--7----------------------|

VERSE (x4)
e|----------------------------|
B|----------------------------|
G|--9--9--2--2-----------7--9-|
D|--9--9--2--2-------1--------|
A|--7--7--0--0--1--2----------|
E|----------------------------|

PRECHORUS
e|--------------------------------------|
B|--------------------------------------|
G|--------------------------1-0-3-------|
D|--2--4--4--4--------4-2-0-------4-2-0-|
A|--2--4--4--4--0-2-4-------------------|
E|--2--4--4--4--------------------------|

CHORUS (x4)
e|---------------------------6-6------------7-7--|
B|-------------------------------5-5-------------|
G|------------------------------------4-4-5------|
D|--11-11-11-11--9--9--9--9----------------------|
A|--11-11-11-11--9--9--9--9----------------------|
E|--9--9--9--9---7--7--7--7----------------------|

e|--------------12--13b---------0-----10-|
B|----------------------12-10------12----|
G|---------------------------------------|
D|---------------------------------------|
A|--2--0--2--0---------------------------|
E|---------------------------------------|

e|----------------------------------------------------|
B|----------------------------------------------------|
G|----------------------------------------------------|
D|--------------------------------------------------9-|
A|-----11--11----11--11-----9--9-------------9-7-6----|
E|--9----------0---------9-----------6--7--9----------|

e|--------77--77------99-|
B|-----55---------00-----|
G|--66-------------------|
D|-----------------------|
A|-----------------------|
E|-----------------------|

CHORUS (x4)
e|---------------------------6-6------------7-7--|
B|-------------------------------5-5-------------|
G|------------------------------------4-4-5------|
D|--11-11-11-11--9--9--9--9----------------------|
A|--11-11-11-11--9--9--9--9----------------------|
E|--9--9--9--9---7--7--7--7----------------------|
Tap to rate this tab
# A B C D E F G H I J K L M N O P Q R S T U V W X Y Z