Guitaretab - guitar tabs
Song name
# A B C D E F G H I J K L M N O P Q R S T U V W X Y Z

Misc Unsigned Bands - Joint Family - Drummers Advice tab

                                   |
*********************************--|--***************************************
                                   |
Track: Drummerís Advice
Artist: Joint Family
Album: Great Indian Rock
Tabber: Noviz
E-mail: novizdead@yahoo.com
Tuning: Drop D (Low to High-DADGBE)

Joint Family is Indian Nu-metal band. And I doubt if most of you have even heard of it. 
for all those whoíve got the Leviís Great Indian Rock 2006 CD, this page contains the 
for ďDrummerís AdviceĒ.

^ Means bend

-------------------------------|
-------------------------------|
-------------------------------|
-0-6-5-5-0-3-------------------|
-0-6-5-5-0-3-------------------|
-0-6-5-5-0-3-------------------|
       (x4)

----------------------------|
----------------------------|
----------------------------|
-6-5-5-0-3-0----------------|
-6-5-5-0-3-0----------------|
-6-5-5-0-3-0----------------|
       (x36)

       Verse
------------------------------|
------------------------------|
------------------------------|
-0-6-0-5-0-3^-5^-3^-1^-0------|
------------------------------|
------------------------------|
       (x4)
[ Tab from: http://www.guitaretab.com/m/misc-unsigned-bands/73480.html ]
  Verse (With distortion)
----------------------------|
----------------------------|
----------------------------|
-0-6-0-5-0-3-5-3-1-0--------|
-0-6-0-5-0-3-5-3-1-0--------|
-0-6-0-5-0-3-5-3-1-0--------|
Repeat this x3 & on the 4th time do this:
----------------------------|
----------------------------|
----------------------------|
-0-6-0-5-0-3----------------|
-0-6-0-5-0-3----------------|
-0-6-0-5-0-3----------------|


       Chorus
----------------------------|
----------------------------|
----------------------------|
-6-5-5-0-3-0----------------|
-6-5-5-0-3-0----------------|
-6-5-5-0-3-0----------------|
      (x4)

Repeat the verse
Then repeat the Distortion part of the verse
Repeat the chorus 2 times

----------Bridge-------------
This part contains two guitars, both in Drop D tuning. And the tabs work simultaneously 
both guitars.

First, Guitar 1
---------------------------|
---------------------------|
---------------------------|
-0-- Hold this chord for 4 sec
-0-------------------------|
-0-------------------------|


Guitar 1             |       Guitar 2
------------------|  |  ------------------------|
------------------|  |  ------------------------|
------------------|  |  ------------------------|
-0--------------5-|  |  ------------------------|
-0--------------5-|  |  -12-12-10-9-7-9-10-13---|
-0--------------5-|  |  -12-12-10-9-7-9-10-13---|

                  (x8)

      Both Guitars
--------------------------|
--------------------------|
--------------------------|
-1211109878910111213------|
-1211109878910111213------|
-1211109878910111213------|
 Play real fast and donít mess up with the tabs coz this is the crucial area!

Repeat the chorus 2 times.

This is it. Needs some practice for mastering. I think the tabís correct but I could 
made a slight mistake. If you see any corrections to be, fell free to mail me. And 
there is bonus tab for all the mailers!
Related for Joint Family - Drummers Advice tab