Song name
# A B C D E F G H I J K L M N O P Q R S T U V W X Y Z

Misc Unsigned Bands - 10 Things - This Girl tab

-------------------------------------------------------------------------------
			     This Girl - 10 Things
-------------------------------------------------------------------------------
Tabbed by: Rob Church
Email:mario_nation@yahoo.com

Tuning:EADGBe

Intro:
e|---------------------------------------------------------------------------|
B|---------------------------------------------------------------------------|
G|-13--8---------------------------------------------------------------------|
D|-14--9---------------------------------------------------------------------|
A|-12--7---------------------------------------------------------------------|
E|---------------------------------------------------------------------------|

Verse 1:
e|---------------------------------------------------------------------------|
B|---------------------------------------------------------------------------|
G|-13-------------------8----------------------------------------------------|
D|-14-------------------9----------------------------------------------------|
A|-12-------------------7----------------------------------------------------|
E|---------------------------------------------------------------------------|
   There was this girl, who lived in broken dreams
e|---------------------------------------------------------------------------|
B|---------------------------------------------------------------------------|
G|-13-------------------8----------------------------------------------------|
D|-14-------------------9----------------------------------------------------|
A|-12-------------------7----------------------------------------------------|
E|---------------------------------------------------------------------------|
   No father or mother, to care for her needs
e|---------------------------------------------------------------------------|
B|---------------------------------------------------------------------------|
G|-13----------------------8-------------------------------------------------|
D|-14----------------------9-------------------------------------------------|
A|-12----------------------7-------------------------------------------------|
E|---------------------------------------------------------------------------|
   She didn't know how to, start the day of right
e|---------------------------------------------------------------------------|
B|---------------------------------------------------------------------------|
G|-13-------------------8----------------------------------------------------|
D|-14-------------------9----------------------------------------------------|
A|-12-------------------7----------------------------------------------------|
E|---------------------------------------------------------------------------|
   No father or mother, to teach her right

Interlude:Intro 2 times

Verse 2:(same chords as verse 1)
Broken down
and feeling alone
nobodies at home
but she's all alone
Life like a tunnel
No light at the end
Shame on her parents
For leaving her alone

Interlude:Intro 2 times

Chorus:(same chords as verse 1)
She feels
Broken down inside
She feels
Like nothing can go right
She feels
Broken down inside
She feels
Like nothing can go right
--------------------------------------------------------------------
song order:
intro, verse 1, interlude, verse 2, interlude, chorus, intro, verse 1, interlude, 
interlude, verse 2, interlude, chorus, chorus
Tap to rate this tab
 
# A B C D E F G H I J K L M N O P Q R S T U V W X Y Z